Simple Plan Tabs

Gone Too Soon

2 versions

TAB

            *Picking*
[Scroll down for chords]

Intro
e|-------0-----------0----------------|
B|--3----------3----------3-----3-2---|
G|-----2----------2----------2--------|
D|--0---------------------------------|
A|------------------------2-----------|
E|-------------3----------------------|
    Dsus2
Dsus2
e |---|---|---|---|---|
B |---|---|-x-|---|---|
G |---|-x-|---|---|---|
D |---|---|---|---|---|
A |---|---|---|---|---|
E |---|---|---|---|---|
Dsus2
Dsus2
e |---|---|---|---|---|
B |---|---|-x-|---|---|
G |---|-x-|---|---|---|
D |---|---|---|---|---|
A |---|---|---|---|---|
E |---|---|---|---|---|
/G
G
e |---|---|-x-|---|---|
B |---|---|---|---|---|
G |---|---|---|---|---|
D |---|---|---|---|---|
A |---|-x-|---|---|---|
E |---|---|-x-|---|---|
B7
B7
e |---|-x-|---|---|---|
B |---|---|---|-x-|---|
G |---|-x-|---|---|---|
D |---|---|---|-x-|---|
A |---|-x-|---|---|---|
E |---|---|---|---|---|
Verse 1 Hey there now... ...unexpected You changed my life... ...unprotected e|-------0-----------0-----------0-----------2---| B|--3----------3----------3------------3---------| G|-----2----------2-----------2-----------2------| x2 D|--0--------------------------------------------| A|------------------------2----------------------| E|-------------3-----------------------3---------| Pre-chorus In the blink of an eye e|--------------------------------------| B|------3----------------------3--------| G|----2----------------------2----------| D|---------Bm
Bm
e |---|-x-|---|---|---|
B |---|---|---|---|---|
G |---|---|---|-x-|---|
D |---|---|---|---|---|
A |---|-x-|---|---|---|
E |---|---|---|---|---|
--------A
A
e |---|---|---|---|---|
B |---|-x-|---|---|---|
G |---|-x-|---|---|---|
D |---|-x-|---|---|---|
A |---|---|---|---|---|
E |---|---|---|---|---|
------------------| A|--------------------------------------| E|--3----------------------3------------| Intro: D
D
e |---|-x-|---|---|---|
B |---|---|-x-|---|---|
G |---|-x-|---|---|---|
D |---|---|---|---|---|
A |---|---|---|---|---|
E |---|---|---|---|---|
G
G
e |---|---|-x-|---|---|
B |---|---|---|---|---|
G |---|---|---|---|---|
D |---|---|---|---|---|
A |---|-x-|---|---|---|
E |---|---|-x-|---|---|
Bm
Bm
e |---|-x-|---|---|---|
B |---|---|---|---|---|
G |---|---|---|-x-|---|
D |---|---|---|---|---|
A |---|-x-|---|---|---|
E |---|---|---|---|---|
Verse 1: D
D
e |---|-x-|---|---|---|
B |---|---|-x-|---|---|
G |---|-x-|---|---|---|
D |---|---|---|---|---|
A |---|---|---|---|---|
E |---|---|---|---|---|
G
G
e |---|---|-x-|---|---|
B |---|---|---|---|---|
G |---|---|---|---|---|
D |---|---|---|---|---|
A |---|-x-|---|---|---|
E |---|---|-x-|---|---|
Bm
Bm
e |---|-x-|---|---|---|
B |---|---|---|---|---|
G |---|---|---|-x-|---|
D |---|---|---|---|---|
A |---|-x-|---|---|---|
E |---|---|---|---|---|
Hey there now, where'd you go? G
G
e |---|---|-x-|---|---|
B |---|---|---|---|---|
G |---|---|---|---|---|
D |---|---|---|---|---|
A |---|-x-|---|---|---|
E |---|---|-x-|---|---|
You left me here so unexpected. D
D
e |---|-x-|---|---|---|
B |---|---|-x-|---|---|
G |---|-x-|---|---|---|
D |---|---|---|---|---|
A |---|---|---|---|---|
E |---|---|---|---|---|
G
G
e |---|---|-x-|---|---|
B |---|---|---|---|---|
G |---|---|---|---|---|
D |---|---|---|---|---|
A |---|-x-|---|---|---|
E |---|---|-x-|---|---|
Bm
Bm
e |---|-x-|---|---|---|
B |---|---|---|---|---|
G |---|---|---|-x-|---|
D |---|---|---|---|---|
A |---|-x-|---|---|---|
E |---|---|---|---|---|
You changed my life I hope you know G
G
e |---|---|-x-|---|---|
B |---|---|---|---|---|
G |---|---|---|---|---|
D |---|---|---|---|---|
A |---|-x-|---|---|---|
E |---|---|-x-|---|---|
'Cause now I'm lost, so unprotected. Pre-Chorus: G
G
e |---|---|-x-|---|---|
B |---|---|---|---|---|
G |---|---|---|---|---|
D |---|---|---|---|---|
A |---|-x-|---|---|---|
E |---|---|-x-|---|---|
Bm
Bm
e |---|-x-|---|---|---|
B |---|---|---|---|---|
G |---|---|---|-x-|---|
D |---|---|---|---|---|
A |---|-x-|---|---|---|
E |---|---|---|---|---|
A
A
e |---|---|---|---|---|
B |---|-x-|---|---|---|
G |---|-x-|---|---|---|
D |---|-x-|---|---|---|
A |---|---|---|---|---|
E |---|---|---|---|---|
In the blink of an eye, G
G
e |---|---|-x-|---|---|
B |---|---|---|---|---|
G |---|---|---|---|---|
D |---|---|---|---|---|
A |---|-x-|---|---|---|
E |---|---|-x-|---|---|
Bm
Bm
e |---|-x-|---|---|---|
B |---|---|---|---|---|
G |---|---|---|-x-|---|
D |---|---|---|---|---|
A |---|-x-|---|---|---|
E |---|---|---|---|---|
A
A
e |---|---|---|---|---|
B |---|-x-|---|---|---|
G |---|-x-|---|---|---|
D |---|-x-|---|---|---|
A |---|---|---|---|---|
E |---|---|---|---|---|
I never got to say goodbye. Chorus: D
D
e |---|-x-|---|---|---|
B |---|---|-x-|---|---|
G |---|-x-|---|---|---|
D |---|---|---|---|---|
A |---|---|---|---|---|
E |---|---|---|---|---|
G
G
e |---|---|-x-|---|---|
B |---|---|---|---|---|
G |---|---|---|---|---|
D |---|---|---|---|---|
A |---|-x-|---|---|---|
E |---|---|-x-|---|---|
Like a shooting star Bm
Bm
e |---|-x-|---|---|---|
B |---|---|---|---|---|
G |---|---|---|-x-|---|
D |---|---|---|---|---|
A |---|-x-|---|---|---|
E |---|---|---|---|---|
flying across the room A
A
e |---|---|---|---|---|
B |---|-x-|---|---|---|
G |---|-x-|---|---|---|
D |---|-x-|---|---|---|
A |---|---|---|---|---|
E |---|---|---|---|---|
so fast, so far, D
D
e |---|-x-|---|---|---|
B |---|---|-x-|---|---|
G |---|-x-|---|---|---|
D |---|---|---|---|---|
A |---|---|---|---|---|
E |---|---|---|---|---|
you were gone too soon. G
G
e |---|---|-x-|---|---|
B |---|---|---|---|---|
G |---|---|---|---|---|
D |---|---|---|---|---|
A |---|-x-|---|---|---|
E |---|---|-x-|---|---|
You're a part of me Bm
Bm
e |---|-x-|---|---|---|
B |---|---|---|---|---|
G |---|---|---|-x-|---|
D |---|---|---|---|---|
A |---|-x-|---|---|---|
E |---|---|---|---|---|
A
A
e |---|---|---|---|---|
B |---|-x-|---|---|---|
G |---|-x-|---|---|---|
D |---|-x-|---|---|---|
A |---|---|---|---|---|
E |---|---|---|---|---|
G
G
e |---|---|-x-|---|---|
B |---|---|---|---|---|
G |---|---|---|---|---|
D |---|---|---|---|---|
A |---|-x-|---|---|---|
E |---|---|-x-|---|---|
and I'll never be the same here without you. You were gone too soon. D
D
e |---|-x-|---|---|---|
B |---|---|-x-|---|---|
G |---|-x-|---|---|---|
D |---|---|---|---|---|
A |---|---|---|---|---|
E |---|---|---|---|---|
G
G
e |---|---|-x-|---|---|
B |---|---|---|---|---|
G |---|---|---|---|---|
D |---|---|---|---|---|
A |---|-x-|---|---|---|
E |---|---|-x-|---|---|
Verse 2: D
D
e |---|-x-|---|---|---|
B |---|---|-x-|---|---|
G |---|-x-|---|---|---|
D |---|---|---|---|---|
A |---|---|---|---|---|
E |---|---|---|---|---|
G
G
e |---|---|-x-|---|---|
B |---|---|---|---|---|
G |---|---|---|---|---|
D |---|---|---|---|---|
A |---|-x-|---|---|---|
E |---|---|-x-|---|---|
You were always there like a shining light, Bm
Bm
e |---|-x-|---|---|---|
B |---|---|---|---|---|
G |---|---|---|-x-|---|
D |---|---|---|---|---|
A |---|-x-|---|---|---|
E |---|---|---|---|---|
A
A
e |---|---|---|---|---|
B |---|-x-|---|---|---|
G |---|-x-|---|---|---|
D |---|-x-|---|---|---|
A |---|---|---|---|---|
E |---|---|---|---|---|
on my darkest days, you were there to guide me. D
D
e |---|-x-|---|---|---|
B |---|---|-x-|---|---|
G |---|-x-|---|---|---|
D |---|---|---|---|---|
A |---|---|---|---|---|
E |---|---|---|---|---|
G
G
e |---|---|-x-|---|---|
B |---|---|---|---|---|
G |---|---|---|---|---|
D |---|---|---|---|---|
A |---|-x-|---|---|---|
E |---|---|-x-|---|---|
Oh I miss you now, I wish you could see Bm
Bm
e |---|-x-|---|---|---|
B |---|---|---|---|---|
G |---|---|---|-x-|---|
D |---|---|---|---|---|
A |---|-x-|---|---|---|
E |---|---|---|---|---|
A
A
e |---|---|---|---|---|
B |---|-x-|---|---|---|
G |---|-x-|---|---|---|
D |---|-x-|---|---|---|
A |---|---|---|---|---|
E |---|---|---|---|---|
just how much your memory will always mean to me. Pre-Chorus: G
G
e |---|---|-x-|---|---|
B |---|---|---|---|---|
G |---|---|---|---|---|
D |---|---|---|---|---|
A |---|-x-|---|---|---|
E |---|---|-x-|---|---|
Bm
Bm
e |---|-x-|---|---|---|
B |---|---|---|---|---|
G |---|---|---|-x-|---|
D |---|---|---|---|---|
A |---|-x-|---|---|---|
E |---|---|---|---|---|
A
A
e |---|---|---|---|---|
B |---|-x-|---|---|---|
G |---|-x-|---|---|---|
D |---|-x-|---|---|---|
A |---|---|---|---|---|
E |---|---|---|---|---|
In the blink of an eye G
G
e |---|---|-x-|---|---|
B |---|---|---|---|---|
G |---|---|---|---|---|
D |---|---|---|---|---|
A |---|-x-|---|---|---|
E |---|---|-x-|---|---|
Bm
Bm
e |---|-x-|---|---|---|
B |---|---|---|---|---|
G |---|---|---|-x-|---|
D |---|---|---|---|---|
A |---|-x-|---|---|---|
E |---|---|---|---|---|
A
A
e |---|---|---|---|---|
B |---|-x-|---|---|---|
G |---|-x-|---|---|---|
D |---|-x-|---|---|---|
A |---|---|---|---|---|
E |---|---|---|---|---|
I never got to say goodbye. Chorus: D
D
e |---|-x-|---|---|---|
B |---|---|-x-|---|---|
G |---|-x-|---|---|---|
D |---|---|---|---|---|
A |---|---|---|---|---|
E |---|---|---|---|---|
G
G
e |---|---|-x-|---|---|
B |---|---|---|---|---|
G |---|---|---|---|---|
D |---|---|---|---|---|
A |---|-x-|---|---|---|
E |---|---|-x-|---|---|
Like a shooting star Bm
Bm
e |---|-x-|---|---|---|
B |---|---|---|---|---|
G |---|---|---|-x-|---|
D |---|---|---|---|---|
A |---|-x-|---|---|---|
E |---|---|---|---|---|
flying across the room, A
A
e |---|---|---|---|---|
B |---|-x-|---|---|---|
G |---|-x-|---|---|---|
D |---|-x-|---|---|---|
A |---|---|---|---|---|
E |---|---|---|---|---|
so fast, so far. D
D
e |---|-x-|---|---|---|
B |---|---|-x-|---|---|
G |---|-x-|---|---|---|
D |---|---|---|---|---|
A |---|---|---|---|---|
E |---|---|---|---|---|
You were gone too soon. G
G
e |---|---|-x-|---|---|
B |---|---|---|---|---|
G |---|---|---|---|---|
D |---|---|---|---|---|
A |---|-x-|---|---|---|
E |---|---|-x-|---|---|
You're a part of me, Bm
Bm
e |---|-x-|---|---|---|
B |---|---|---|---|---|
G |---|---|---|-x-|---|
D |---|---|---|---|---|
A |---|-x-|---|---|---|
E |---|---|---|---|---|
A
A
e |---|---|---|---|---|
B |---|-x-|---|---|---|
G |---|-x-|---|---|---|
D |---|-x-|---|---|---|
A |---|---|---|---|---|
E |---|---|---|---|---|
G
G
e |---|---|-x-|---|---|
B |---|---|---|---|---|
G |---|---|---|---|---|
D |---|---|---|---|---|
A |---|-x-|---|---|---|
E |---|---|-x-|---|---|
and I'll never be the same here without you, you were gone too soon. Bridge: G
G
e |---|---|-x-|---|---|
B |---|---|---|---|---|
G |---|---|---|---|---|
D |---|---|---|---|---|
A |---|-x-|---|---|---|
E |---|---|-x-|---|---|
A
A
e |---|---|---|---|---|
B |---|-x-|---|---|---|
G |---|-x-|---|---|---|
D |---|-x-|---|---|---|
A |---|---|---|---|---|
E |---|---|---|---|---|
Shine on, shine on Bm
Bm
e |---|-x-|---|---|---|
B |---|---|---|---|---|
G |---|---|---|-x-|---|
D |---|---|---|---|---|
A |---|-x-|---|---|---|
E |---|---|---|---|---|
Dm
Dm
e |-x-|---|---|---|---|
B |---|---|-x-|---|---|
G |---|-x-|---|---|---|
D |---|---|---|---|---|
A |---|---|---|---|---|
E |---|---|---|---|---|
/F#
F#
e |---|-x-|---|---|---|
B |---|-x-|---|---|---|
G |---|---|-x-|---|---|
D |---|---|---|-x-|---|
A |---|---|---|-x-|---|
E |---|-x-|---|---|---|
on to a better place. G
G
e |---|---|-x-|---|---|
B |---|---|---|---|---|
G |---|---|---|---|---|
D |---|---|---|---|---|
A |---|-x-|---|---|---|
E |---|---|-x-|---|---|
A
A
e |---|---|---|---|---|
B |---|-x-|---|---|---|
G |---|-x-|---|---|---|
D |---|-x-|---|---|---|
A |---|---|---|---|---|
E |---|---|---|---|---|
Shine on, shine on Bm
Bm
e |---|-x-|---|---|---|
B |---|---|---|---|---|
G |---|---|---|-x-|---|
D |---|---|---|---|---|
A |---|-x-|---|---|---|
E |---|---|---|---|---|
Dm
Dm
e |-x-|---|---|---|---|
B |---|---|-x-|---|---|
G |---|-x-|---|---|---|
D |---|---|---|---|---|
A |---|---|---|---|---|
E |---|---|---|---|---|
/F#
F#
e |---|-x-|---|---|---|
B |---|-x-|---|---|---|
G |---|---|-x-|---|---|
D |---|---|---|-x-|---|
A |---|---|---|-x-|---|
E |---|-x-|---|---|---|
we'll never be the same. G
G
e |---|---|-x-|---|---|
B |---|---|---|---|---|
G |---|---|---|---|---|
D |---|---|---|---|---|
A |---|-x-|---|---|---|
E |---|---|-x-|---|---|
A
A
e |---|---|---|---|---|
B |---|-x-|---|---|---|
G |---|-x-|---|---|---|
D |---|-x-|---|---|---|
A |---|---|---|---|---|
E |---|---|---|---|---|
Shine on, shine on Chorus: E
E
e |---|---|---|---|---|
B |---|---|---|---|---|
G |-x-|---|---|---|---|
D |---|-x-|---|---|---|
A |---|-x-|---|---|---|
E |---|---|---|---|---|
Like a shooting star, A
A
e |---|---|---|---|---|
B |---|-x-|---|---|---|
G |---|-x-|---|---|---|
D |---|-x-|---|---|---|
A |---|---|---|---|---|
E |---|---|---|---|---|
flying across the room. C#m
C#m
e |---|---|---|-x-|---|
B |---|-x-|---|---|---|
G |---|---|---|---|---|-x-
D |---|-x-|---|---|---|
A |---|---|---|-x-|---|
E |---|---|---|---|---|
So fast, so far B
B
e |---|-x-|---|---|---|
B |---|---|---|-x-|---|
G |---|---|---|-x-|---|
D |---|---|---|-x-|---|
A |---|-x-|---|---|---|
E |---|---|---|---|---|
you were gone too soon. E
E
e |---|---|---|---|---|
B |---|---|---|---|---|
G |-x-|---|---|---|---|
D |---|-x-|---|---|---|
A |---|-x-|---|---|---|
E |---|---|---|---|---|
You're a part of me A
A
e |---|---|---|---|---|
B |---|-x-|---|---|---|
G |---|-x-|---|---|---|
D |---|-x-|---|---|---|
A |---|---|---|---|---|
E |---|---|---|---|---|
C#m
C#m
e |---|---|---|-x-|---|
B |---|-x-|---|---|---|
G |---|---|---|---|---|-x-
D |---|-x-|---|---|---|
A |---|---|---|-x-|---|
E |---|---|---|---|---|
B
B
e |---|-x-|---|---|---|
B |---|---|---|-x-|---|
G |---|---|---|-x-|---|
D |---|---|---|-x-|---|
A |---|-x-|---|---|---|
E |---|---|---|---|---|
A
A
e |---|---|---|---|---|
B |---|-x-|---|---|---|
G |---|-x-|---|---|---|
D |---|-x-|---|---|---|
A |---|---|---|---|---|
E |---|---|---|---|---|
and I'll never be the same here without you. You were gone too soon. E
E
e |---|---|---|---|---|
B |---|---|---|---|---|
G |-x-|---|---|---|---|
D |---|-x-|---|---|---|
A |---|-x-|---|---|---|
E |---|---|---|---|---|
Shine on, shine on A
A
e |---|---|---|---|---|
B |---|-x-|---|---|---|
G |---|-x-|---|---|---|
D |---|-x-|---|---|---|
A |---|---|---|---|---|
E |---|---|---|---|---|
you were gone too soon. C#m
C#m
e |---|---|---|-x-|---|
B |---|-x-|---|---|---|
G |---|---|---|---|---|-x-
D |---|-x-|---|---|---|
A |---|---|---|-x-|---|
E |---|---|---|---|---|
Shine on, shine on B
B
e |---|-x-|---|---|---|
B |---|---|---|-x-|---|
G |---|---|---|-x-|---|
D |---|---|---|-x-|---|
A |---|-x-|---|---|---|
E |---|---|---|---|---|
you were gone too soon. E
E
e |---|---|---|---|---|
B |---|---|---|---|---|
G |-x-|---|---|---|---|
D |---|-x-|---|---|---|
A |---|-x-|---|---|---|
E |---|---|---|---|---|
Shine on, shine on A
A
e |---|---|---|---|---|
B |---|-x-|---|---|---|
G |---|-x-|---|---|---|
D |---|-x-|---|---|---|
A |---|---|---|---|---|
E |---|---|---|---|---|
C#m
C#m
e |---|---|---|-x-|---|
B |---|-x-|---|---|---|
G |---|---|---|---|---|-x-
D |---|-x-|---|---|---|
A |---|---|---|-x-|---|
E |---|---|---|---|---|
B
B
e |---|-x-|---|---|---|
B |---|---|---|-x-|---|
G |---|---|---|-x-|---|
D |---|---|---|-x-|---|
A |---|-x-|---|---|---|
E |---|---|---|---|---|
A
A
e |---|---|---|---|---|
B |---|-x-|---|---|---|
G |---|-x-|---|---|---|
D |---|-x-|---|---|---|
A |---|---|---|---|---|
E |---|---|---|---|---|
you were gone too soon.

Added On December 16th, 2013

SHARE

Comments

blog comments powered by Disqus

VERSIONS

ADVERTISEMENT