Sir Sly Tabs

Ghost

1 versions

TAB

            Sir Sly - Ghost

Sir Sly - Ghost

*Intro*

e|---------------------------------------------------------
b|---------------------------------------------------------
d|---------------------------------------------5-4---------
g|---2-2-2-2-0-0-------------2-2-2-2-0-0-------------------
a|---------------2-2-5-------------------2-2-5-------------
e|-0-------------------5-3-0-------------------------------

C
Go ahead and stand up straight
Em	 D
Straight against the wall
C
Why did I go for you?
Em	    D
Pick you up when you fall
C			    Em	   D
Was I too drunk to say what I said to you
C			  Em	       D
Was I too blind to go and see straight through you


*Chorus*

C (or Am)
Ghost
Em 	    D	   C
   You're a ghost
   You're a ghost
   You're a ghost
   You're a ghost

*Intro*

e|---------------------------------------------------------
b|---------------------------------------------------------
d|---------------------------------------------5-4---------
g|---2-2-2-2-0-0-------------2-2-2-2-0-0-------------------
a|---------------2-2-5-------------------2-2-5-------------
e|-0-------------------5-3-0-------------------------------


C
You flew out on a plane
Em	      D
Came crashing into the ocean
C
And then you haunted me
Em	     D
Don't have a clue what's the motion
C			 Em	  D
So every now and then it feels so soothing
C			    Em	       D
When you float on a bit and move right though me


*Chorus*

C (or Am)
Ghost
Em 	    D	   C
   You're a ghost
   You're a ghost
   You're a ghost
   You're a ghost


C C C   Em Em Em   Bm Bm Bm
		 Yeah
C
One, two, three, four
C
Get up save face
Em
Find your way back to the grave
Bm			      C
Or then go find your way back home

C
Get up save face
Em
Find your way back to the grave
Bm				C
You'll never find your way back home
C
You're a ghost

C
Get up save face
Em				 C
Find your way back to the grave (you're a ghost)
Bm				    C
Or then go find your way back home (you're a ghost)


*Chorus*

C (or Am)
Ghost
Em 	    D	   C
   You're a ghost
   You're a ghost
   You're a ghost
   You're a ghost    

Added On December 16th, 2013

SHARE

Comments

blog comments powered by Disqus

ADVERTISEMENT