Six Feet Under Tabs

Doomsday

3 versions

TAB

            -------------------------------------------------------------------------------
			     Doomsday - Six Feet Under
-------------------------------------------------------------------------------
Tabbed By:Greg M.
Tuning: Drop C

 One thing in this song was hard to figure out, the rest was easy. I saw there was no 
for it, and made one.


Riff 1
d|-----------------------------------------------------------------------|
A|-----------------------------------------------------------------------|
F|-----------------------------------------------------------------------|
C|-10-5--7--6--------------------10-5--7--6------------------------------|
G|-10-5--5--6--------------------10-5--5--6------------------------------|
C|-10-5--0--6--6-6-6-6-6-6-6-6---10-5--0--6-8-8-8-8-8-8-8-8--------------|
               . . . . . . . .              . . . . . . . .
Riff 2
d|-----------------------------------------------------------------------|
A|-----------------------------------------------------------------------|
F|-----------------------------------------------------------------------|
C|-3---4-----3-----------------------------------------------------------|
G|-1-3-2-----1--3--2-----------------------------------------------------|
C|---3----------3--2-----------------------------------------------------|
     .

Riff 3
d|-----------------------------------------------------------------------|
A|-----------------------------------------------------------------------|
F|-----------------------------------------------------------------------|
C|-----------------------------------------------------------------------|
G|-0-3-4-3-0-1-0-3-4-3-0-1-0---------------------------------------------|
C|-0-3-4-3-0-1-0-3-4-3-0-1-0---------------------------------------------|
   . . . . . . . . . . . . .


 Simple as that. Put them in order and there have it.


 . = palm mute    

Added On December 16th, 2013

SHARE

Comments

blog comments powered by Disqus

VERSIONS

ADVERTISEMENT