Skillet Tabs

Comatose

2 versions

TAB

            Comatose Tab by Skillet


Skillet: Comatose
Album: Comatose
2006 Atlantic Records
Drop B Tuning B-F#-B-E-G#-C#

s=slide
palm mute=...etc
~=let it ring
b=bend
r=return bend

Intro
Strings then Drums then...
C#[----------------------------------------------------]
G#[----------------------------------------------------]
E [----------------------------------------------------]
B [-5-5--1-1--0--xx-3----5/5-x5--1/1-x1--0--3--4--5----]
F#[-5-5--1-1--0--xx-3----5/5-x5--1/1-x1--0--3--4--5----]
B [-5-5--1-1--0--xx-3----5/5-x5--1/1-x1--0--3--4--5----]

Verse 1
Keyboard then...
C#[------------------------------------------------------]
G#[------------------------------------------------------]
E [------------------------------------------------------]
B [-5/5-5/5-5/5-5/5--3/3-3/3-3/3-3/3--1/1-1/1-1/1-1/1----]
F#[-5/5-5/5-5/5-5/5--3/3-3/3-3/3-3/3--1/1-1/1-1/1-1/1----]
B [-5/5-5/5-5/5-5/5--3/3-3/3-3/3-3/3--1/1-1/1-1/1-1/1----]

C#[-------------------------------------]
G#[-------------------------------------]
E [-5/5-5/5-5/5-5/5--7/7-7/7-7/7-7/7----]
B [-5/5-5/5-5/5-5/5--7/7-7/7-7/7-7/7----]
F#[-3/3-3/3-3/3-3/3--5/5-5/5-5/5-5/5----]
B [-------------------------------------]

Pre-Chorus
C#[------------------------------------------------------------------]
G#[------------------------------------------------------------------]
E [------------------------------------------------------------------]
B [-1/1/1-1/1-1-1/1-1/1--3/3/3-3/3-3-3/3-3/3--5/5/5-5/5-5-5/5-5/5----]
F#[-1/1/1-1/1-1-1/1-1/1--3/3/3-3/3-3-3/3-3/3--5/5/5-5/5-5-5/5-5/5----]
B [-1/1/1-1/1-1-1/1-1/1--3/3/3-3/3-3-3/3-3/3--5/5/5-5/5-5-5/5-5/5----]

C#[----------------------------------------]
G#[----------------------------------------]
E [-5/5/5-5/5-5-5/5-5/5--7/7/7-7/7/7--7----]
B [-5/5/5-5/5-5-5/5-5/5--7/7/7-7/7/7--7----]
F#[-3/3/3-3/3-3-3/3-3/3--5/5/5-5/5/5--5----]
B [----------------------------------------]

Chorus
C#[--------------------------------------------------------------]
G#[--------------------------------------------------------------]
E [-----------------------------------------14s15/14--7/7/8/7----]
B [-5-5--1-1--0--xx-3----5/5-x5--1/1-x1--0---xs-x--x--x/x/x/x----]
F#[-5-5--1-1--0--xx-3----5/5-x5--1/1-x1--0--12s13/12--5/5/6/5----]
B [-5-5--1-1--0--xx-3----5/5-x5--1/1-x1--0-----------------------]

C#[----------------------------------------------------]
G#[----------------------------------------------------]
E [----------------------------------------------------]
B [-5-5--1-1--0--xx-3----5/5-x5--1/1-x1--0--3--4--5----]
F#[-5-5--1-1--0--xx-3----5/5-x5--1/1-x1--0--3--4--5----]
B [-5-5--1-1--0--xx-3----5/5-x5--1/1-x1--0--3--4--5----]

Post-Chorus
C#[---------------]
G#[---------------]
E [---------------]
B [-5--5/5/5/5----]
F#[-5--5/5/5/5----]
B [-5--5/5/5/5----]
    .  ......

Verse 2
C#[------------------------------------------------------]
G#[------------------------------------------------------]
E [------------------------------------------------------]
B [-5/5-5/5-5/5-5/5--3/3-3/3-3/3-3/3--1/1-1/1-1/1-1/1----]
F#[-5/5-5/5-5/5-5/5--3/3-3/3-3/3-3/3--1/1-1/1-1/1-1/1----]
B [-5/5-5/5-5/5-5/5--3/3-3/3-3/3-3/3--1/1-1/1-1/1-1/1----]

C#[-------------------------------------]
G#[-------------------------------------]
E [-5/5-5/5-5/5-5/5--7/7-7/7-7/7-7/7----]
B [-5/5-5/5-5/5-5/5--7/7-7/7-7/7-7/7----]
F#[-3/3-3/3-3/3-3/3--5/5-5/5-5/5-5/5----]
B [-------------------------------------]

C#[--------------------------------------------------------]
G#[--------------------------------------------------------]
E [----------------------------------------------5----7----]
B [-5--5--xx-x-x-x-3--3--xx-x-x-x-1--1--xx-x-x-x-5----7----]
F#[-5--5--xx-x-x-x-3--3--xx-x-x-x-1--1--xx-x-x-x-3----5----]
B [-5--5--xx-x-x-x-3--3--xx-x-x-x-1--1--xx-x-x-x-----------]

Pre-Chorus 2
Gtr. 2
C#[------------------------------------------------------------------]
G#[------------------------------------------------------------------]
E [------------------------------------------------------------------]
B [-1/1/1-1/1-1-1/1-1/1--3/3/3-3/3-3-3/3-3/3--5/5/5-5/5-5-5/5-5/5----]
F#[-1/1/1-1/1-1-1/1-1/1--3/3/3-3/3-3-3/3-3/3--5/5/5-5/5-5-5/5-5/5----]
B [-1/1/1-1/1-1-1/1-1/1--3/3/3-3/3-3-3/3-3/3--5/5/5-5/5-5-5/5-5/5----]

C#[----------------------------------------]
G#[----------------------------------------]
E [-5/5/5-5/5-5-5/5-5/5--7/7/7-7/7/7--7----]
B [-5/5/5-5/5-5-5/5-5/5--7/7/7-7/7/7--7----]
F#[-3/3/3-3/3-3-3/3-3/3--5/5/5-5/5/5--5----]
B [----------------------------------------]

Gtr. 1
C#[-15~~~~s10s17~~~~s22~~~~s15s23~22~~brbr----]
G#[-------------------------------------------]
E [-------------------------------------------]
B [-------------------------------------------]
F#[-------------------------------------------]
B [-------------------------------------------]

Chorus

Bridge
C#[--------------------------]
G#[--------------------------]
E [------10--8/8/8/8-xx-8----]
B [-5/5-x10--8/8/8/8-xx-8----]
F#[-5/5-x-8--6/6/6/6-xx-6----]x4
B [-5/5-x--------------------]

C#[--------------------]
G#[--------------------]
E [-5------------------]
B [-5----0--0--0--0----]
F#[-3----0--0--0--0----]
B [------0--0--0--0----]

Pre-Chorus 3
Piano
Then
C#[-----------]
G#[-----------]
E [-7----7----]
B [-7----7----]
F#[-5----5----]
B [-----------]
    .....

Chorus 2
C#[------------------------------------------------------------------]
G#[------------------------------------------------------------------]
E [---------------------------------------------14s15/14--7/7/8/7----]
B [-5/5/5--1/1/1--0--xx-3----5/5-x5--1/1-x1--0---xs-x--x--x/x/x/x----]
F#[-5/5/5--1/1/1--0--xx-3----5/5-x5--1/1-x1--0--12s13/12--5/5/6/5----]
B [-5/5/5--1/1/1--0--xx-3----5/5-x5--1/1-x1--0-----------------------]

C#[----------------------------------------------------]
G#[----------------------------------------------------]
E [----------------------------------------------------]
B [-5-5--1-1--0--xx-3----5/5-x5--1/1-x1--0--3--4--5----]
F#[-5-5--1-1--0--xx-3----5/5-x5--1/1-x1--0--3--4--5----]
B [-5-5--1-1--0--xx-3----5/5-x5--1/1-x1--0--3--4--5----]

C#[--------------------------------------------------------------]
G#[--------------------------------------------------------------]
E [-----------------------------------------14s15/14--7/7/8/7----]
B [-5-5--1-1--0--xx-3----5/5-x5--1/1-x1--0---xs-x--x--x/x/x/x----]
F#[-5-5--1-1--0--xx-3----5/5-x5--1/1-x1--0--12s13/12--5/5/6/5----]
B [-5-5--1-1--0--xx-3----5/5-x5--1/1-x1--0-----------------------]

C#[-----------------------------------------------------]
G#[-----------------------------------------------------]
E [----------8/7/5/3-5/2~~------------------------------]
B [-5-5--1-1--------------5/5-x5--1/1-x1--0--3--4--5----]
F#[-5-5--1-1--------------5/5-x5--1/1-x1--0--3--4--5----]
B [-5-5--1-1--------------5/5-x5--1/1-x1--0--3--4--5----]    

Added On December 12th, 2013

SHARE

Comments

blog comments powered by Disqus

VERSIONS

ADVERTISEMENT