Slapshock Tabs

Adios

3 versions

TAB

            Adios Tab by Slapshock


Allen Francis R. Pascual/14 yrs old/M/Carmona Cavite
allen_pascual45(YM) and allen_pascual@hotmail.com(Friendster)
09156225903(GLOBE)

Since no one tabbed my favorite song, I'll do it. I'm not sure about it because I based 
on the tabs of Waiting and Direction.

Do this on Drop D (Either DADGBE or CGCFAD) because if you play it on standard, the 
music will suck more than a black hole.

Legends:
* = Palm Mute
h = hammer
~ = Let ring

The first part is with Wa-wa w/Distortion FX pedal.
Intro 1:
Guitar 1:
E|----------------------------------------------------------------------------|
B|----------------------------------------------------------------------------|
G|----------------------------------------------------------------------------|
D|----------------------------------------------------------------------------|
A|--7-7~--7-7~--7-7~--7-7-7-8~--(3x)--7-7--7-7~--7-7-7-8~---------------------|
D|--7-7~--7-7~--7-7~--7-7-7-8~--------7-7~-7-7~--7-7-7-8~---------------------|

Intro Part 2:
Guitar 1:

E|-------------------------------------------------------------------------|
B|-------------------------------------------------------------------------|
G|-------------------------------------------------------------------------|
D|-------------------------------------------------------------------------|
A|--7-7--7--7--7--7--7-7--(4x)---------------------------------------------|
D|--7-7--7--7--7--7--7-7---------------------------------------------------|
PM= * *  *  *  *  *  * *

Guitar 2:
Make the timing and listen to the music
E|-------------------------------------------------------------------------|
B|-------------------------------------------------------------------------|
G|-------------------------------------------------------------------------|
D|-------------------------------------------------------------------------|
A|--8p7--(3x)--------------------------------------------------------------|
D|-------------------------------------------------------------------------|

Verse 1: 2x
Nag-iiba na ang iyong anyo...
Guitar 1:
E|-------------------------------------------------------------------------|
B|-------------------------------------------------------------------------|
G|-------------------------------------------------------------------------|
D|-------------------------------------------------------------------------|
A|--77777777777777777777777777777777-(those are 32x)-----------------------|
D|--77777777777777777777777777777777---------------------------------------|
PM: ********************************
E|-------------------------------------------------------------------------|
B|-------------------------------------------------------------------------|
G|-------------------------------------------------------------------------|
D|-------------------------------------------------------------------------|
A|--33333333333333333333333333333333-(those are 32x)-----------------------|
D|--33333333333333333333333333333333---------------------------------------|
PM: ********************************
Guitar 2:
E|-------------------------------------------------------------------------|
B|-------------------------------------------------------------------------|
G|-------------------------------------------------------------------------|
D|-------------------------------------------------------------------------|
A|--0h7-7--0h7--0h7--0h7--0h7-7-(2x)---------------------------------------|
D|--0h7-7--0h7--0h7--0h7--0h7-7--------------------------------------------|
PM: * * *  * *  * *  * *  * * *
E|-------------------------------------------------------------------------|
B|-------------------------------------------------------------------------|
G|-------------------------------------------------------------------------|
D|-------------------------------------------------------------------------|
A|--0h3-3--0h3--0h3--0h3--0h3-3-(2x)---------------------------------------|
D|--0h3-3--0h3--0h3--0h3--0h3-3--------------------------------------------|
PM: * * *  * *  * *  * *  * * *

Refrain: 2x
Sa tuwing lumalayo, ika'y lumalapit...
Guitar 2:
E|-------------------------------------------------------------------------|
B|-------------------------------------------------------------------------|
G|-------------------------------------------------------------------------|
D|-------------------------------------------------------------------------|
A|--77777777777777777777777777777777-(those are 32x)-----------------------|
D|--77777777777777777777777777777777---------------------------------------|

E|-------------------------------------------------------------------------|
B|-------------------------------------------------------------------------|
G|-------------------------------------------------------------------------|
D|-------------------------------------------------------------------------|
A|--33333333333333333333333333333333-(those are 32x)-----------------------|
D|--33333333333333333333333333333333---------------------------------------|

Guitar 2:
E|-------------------------------------------------------------------------|
B|-------------------------------------------------------------------------|
G|-------------------------------------------------------------------------|
D|-------------------------------------------------------------------------|
A|--0h7-7--0h7--0h7--0h7--0h7-7-(2x)---------------------------------------|
D|--0h7-7--0h7--0h7--0h7--0h7-7--------------------------------------------|
PM: * * *  * *  * *  * *  * * *
E|-------------------------------------------------------------------------|
B|-------------------------------------------------------------------------|
G|-------------------------------------------------------------------------|
D|-------------------------------------------------------------------------|
A|--0h3-3--0h3--0h3--0h3--0h3-3-(2x)---------------------------------------|
D|--0h3-3--0h3--0h3--0h3--0h3-3--------------------------------------------|
PM: * * *  * *  * *  * *  * * *

Pre-Chorus: 2x
Saan ka ba, liligaya...
Guitar 1:
E|-------------------------------------------------------------------------|
B|-------------------------------------------------------------------------|
G|-------------------------------------------------------------------------|
D|-------------------------------------------------------------------------|
A|--7~--77~-7~--77777777---------------------------------------------------|
D|--7~--77~-7~--77777777---------------------------------------------------|
PM: *   *   *   ********

E|-------------------------------------------------------------------------|
B|-------------------------------------------------------------------------|
G|-------------------------------------------------------------------------|
D|-------------------------------------------------------------------------|
A|--3~--33~-3~--33333333---------------------------------------------------|
D|--3~--33~-3~--33333333---------------------------------------------------|
PM: *   *   *   ********

Guitar 2:
E|-------------------------------------------------------------------------|
B|-------------------------------------------------------------------------|
G|-------------------------------------------------------------------------|
D|-------------------------------------------------------------------------|
A|--7-7-7--8-8--10-10-10---------------------------------------------------|
D|-------------------------------------------------------------------------|
PM: * * *  * *  *  *  *

E|-------------------------------------------------------------------------|
B|-------------------------------------------------------------------------|
G|-------------------------------------------------------------------------|
D|-------------------------------------------------------------------------|
A|--10-10-10--8-8--7-7-7---------------------------------------------------|
D|-------------------------------------------------------------------------|
PM: *  *  *   * *  * * *

Then both guitars do this:
E|-------------------------------------------------------------------------|
B|-------------------------------------------------------------------------|
G|--9~---11~--13~---15~---17~----17171717-17171717-------------------------|
D|--9~---11~--13~---15~---17~----17171717-17171717-------------------------|
A|--7~---9~---11~---13~---15~----15151515-15151515-------------------------|
D|-------------------------------------------------------------------------|
PM:                              * * * *  * * * *

Chorus: 4x
Iniwan ka sa pag idlip...
Guitar 1:
E|-------------------------------------------------------------------------|
B|-------------------------------------------------------------------------|
G|-------------------------------------------------------------------------|
D|-------------------------------------------------------------------------|
A|--7-7-7-7-7-7-7-7-7-7-7-7-7-7-777777-------------------------------------|
D|--7-7-7-7-7-7-7-7-7-7-7-7-7-7-777777-------------------------------------|
PM:                             ******
E|-------------------------------------------------------------------------|
B|-------------------------------------------------------------------------|
G|-------------------------------------------------------------------------|
D|-------------------------------------------------------------------------|
A|--3-3-3-3-3-3-3-3-3-3-3-3-3-3-333333-------------------------------------|
D|--3-3-3-3-3-3-3-3-3-3-3-3-3-3-333333-------------------------------------|
PM:                             ******
Guitar 2:
E|-------------------------------------------------------------------------|
B|-------------------------------------------------------------------------|
G|-------------------------------------------------------------------------|
D|-------------------------------------------------------------------------|
A|--7-0-7-0-7-0-7-0-7-0-7-0-7-0-7-0----------------------------------------|
D|--7-0-7-0-7-0-7-0-7-0-7-0-7-0-7-0----------------------------------------|

E|-------------------------------------------------------------------------|
B|-------------------------------------------------------------------------|
G|-------------------------------------------------------------------------|
D|-------------------------------------------------------------------------|
A|--3-0-3-0-3-0-3-0-3-0-3-0-3-0-3-0----------------------------------------|
D|--3-0-3-0-3-0-3-0-3-0-3-0-3-0-3-0----------------------------------------|

Intro 2 again
Verse 2:
Nagtataka, mundo ko'y nag-iba...
Same as in Verse 1 tabs

(Refrain)
(Chorus)

Bridge:
Part 1:
Guitar 1:
E|-------------------------------------------------------------------------|
B|-------------------------------------------------------------------------|
G|-------------------------------------------------------------------------|
D|-------------------------------------------------------------------------|
A|--77-7-7---77-7-7---33-3-3---33-3-3--------------------------------------|
D|--77-7-7---77-7-7---33-3-3---33-3-3--------------------------------------|
PM  ** * *   ** * *   ** * *   ** * *

Guitar 2:
E|-------------------------------------------------------------------------|
B|-------------------------------------------------------------------------|
G|-------------------------------------------------------------------------|
D|-------------------------------------------------------------------------|
A|--10-8-7-5--(4x)---------------------------------------------------------|
D|-------------------------------------------------------------------------|
Part 2
Guitar 1:
E|-------------------------------------------------------------------------|
B|-------------------------------------------------------------------------|
G|-------------------------------------------------------------------------|
D|-------------------------------------------------------------------------|
A|--77-7-7-77-7-7-7-(2x)--33-3-3-33-3-3-3-(2x)-----------------------------|
D|--77-7-7-77-7-7-7-------33-3-3-33-3-3-3----------------------------------|
PM: ** * * ** * * *       ** * * ** * * *
Guitar 2:
E|-------------------------------------------------------------------------|
B|-------------------------------------------------------------------------|
G|-------------------------------------------------------------------------|
D|-------------------------------------------------------------------------|
A|--10-8-7-5--(4x)---------------------------------------------------------|
D|-------------------------------------------------------------------------|

Part 3:
Guitar 1 only:
E|-------------------------------------------------------------------------|
B|-------------------------------------------------------------------------|
G|-------------------------------------------------------------------------|
D|-------------------------------------------------------------------------|
A|--77-7-7-77-7-7-7-(2x)--33-3-3-33-3-3-3-(2x)-----------------------------|
D|--77-7-7-77-7-7-7-------33-3-3-33-3-3-3----------------------------------|
PM: ** * * ** * * *       ** * * ** * * *

Then both guitars do this:
E|-------------------------------------------------------------------------|
B|-------------------------------------------------------------------------|
G|--9~---11~--13~---15~---17~----17171717-17171717-------------------------|
D|--9~---11~--13~---15~---17~----17171717-17171717-------------------------|
A|--7~---9~---11~---13~---15~----15151515-15151515-------------------------|
D|-------------------------------------------------------------------------|
PM:                              * * * *  * * * *

Chorus 3x until fade.

I'm sure that it is 80% correct.

My Band, Aftershock

Vox = KK Libo-on
Lead Guitar= ME!
Rhythm Guitar = Kevin Evangelista
Bass Guitar = Pierre Talaro
Drums = Tari Najar    

Added On December 12th, 2013

SHARE

Comments

blog comments powered by Disqus

VERSIONS

ADVERTISEMENT