Slapshock Tabs

Agent Orange

4 versions

TAB

            Agent Orange Tab by Slapshock


hey Girls, this is my 2nd tabs, Agent Orange, des is all for you! anyway, My Band
called A New Normal*, Im 14 years old. Contact me: Creatures_From_Above@hotmail.com
Philippiine_killer@yahoo.com.

Tunning: Drop D


Intro.

g-----------------|
d-----------------|  Bass/Play this part 4 times
a----1-------2~---|
d--1---1-x-2------|

Bass
g---------------------------------------------------------|
d----------------------1h2-1------------------------------| Play this twice.
a----1-------2~-----1~-------2----------------------------|
d--1---1-x-2---2--1---------------------------------------|

Verse

bass
g------------------------------------------|
d----------------------1h2-1---------------|
a----1-------2~-----1~-------2-------------|
d--1---1-x-2---2--1------------------------|

Guitar
e------------------------------------------|
b------18b---------------------------------|
g--19~-----19~--17~--19b-19--14-14h15------|
d------------------------------------------|
a------------------------------------------|
d------------------------------------------|

Chorus  \"agent orange get up, get up get up\"
g-------------------------------|
d-------------------------------|    8 times
a-------------------------------|
d---1-1-1h2--1-1-0-0------------|

e-------------------------------|
b-------------------------------|
g-------------------------------|
d---1-1-1h2--1-1-0-0------------|    8 times
a---1-1-1h2--1-1-0-0------------|
d---1-1-1h2--1-1-0-0------------|

Play Verse again (ALL THE SAME)
And Chorus one more time
and then... Brigde

Bridge
Bass
g------------------------------------|
d---77777---55555---77777---55-------|
a------------------------------------|
d------------------------------------|

Guitar
e------------------------------------      --------------------|
b------------------------------------      --------------------|
g---77777---55555---77777---55-------      --------------------|
d---77777---55555---77777---55-------    

Added On December 12th, 2013

SHARE

Comments

blog comments powered by Disqus

VERSIONS

ADVERTISEMENT