Slayer Tabs

Bloodline

8 versions

TAB

            Bloodline Tab by Slayer


slayer
blood line

*= Palm Mute


|-----------------||-----------------|
|-----------------||-----------------|
|-----------------||-----------------|
|-----------------||-----------------|
|-0-0-3-3-2-2-1-1-||-0-0-3-3-2-0-2-3-|
|-0-0-3-3-2-2-1-1-||-0-0-3-3-2-0-2-3-|


|---------------||-----------|
|---------------||-----------|
|---------------||-----------|
|---------------||-----------|
|-100-11110-110-||-1-3-6-5-6-|
|-100-11110-110-||-1-3-6-5-6-|
  *** ***** ***


|----------------------------------------------------|
|----------------------------------------------------|
|----------------------------------------------------|
|----------------------------------------------------|
|-00-5-7-6-7-6-5-8--00-5-7-6-7-6-5-8--00-5-7-6-7-6-8-|
|-00-5-7-6-7-6-5-8--00-5-7-6-7-6-5-8--00-5-7-6-7-6-8-|
  ** * * * * * * *  ** * * * * * * *  ** * * * * *


|-------------------|
|-------------------|
|-------------------|
|-------------------|
|-00-4-3-0-3-6-5-4--|
|-00-4-3-0-3-6-5-4--|


|----------------|
|----------------|
|----------------|
|----------------|
|-000-65-000-56--|
|-000-65-000-56--|




solo (some other guy did the solo I just put it here so you can have this song on one convenient tab


  wah pick slide down  wah     pick slide thru neck
|-------------------||----------------------------------|
|-------------------||----------------------------------|
|-------------------||----------------------------------|
|--x\--x\-----------||----------x\-x\-x\-x\-------------|
|--x\--x\-----------||-5NH-x-x--x\-x\-x\-x\-------------|
|-------------------||-5NH-x-x--------------------------|


|--------------------|
|--------------------|
|--------------------|
|-------------x\x/x\-|
|-x/x\x/x\x/---------|
|--------------------|

   wah pick slide down  wah     pick slide      bar          vib then bar
|-------------------||-----------------------------------------------|
|-------------------||-----------------------------------------------|
|-------------------||-------------------------0-----3/12---5AH~~~---|
|--x\--x\-----------||----------x\-x\-----x\-------------------------|
|--x\--x\-----------||-5NH-x-x--x\-x\-------\------------------------|
|-------------------||-5NH-x-x---------------------------------------|

     vib with finger then use bar
|------------------------------|
|-5AH~~~~~---------------------|
|------------------------------|
|------------------------------|
|------------------------------|
|------------------------------|



Played behind solo
|---------------------------------|
|---------------------------------|
|---------------------------------|
|---------------------------------|
|-1-1-1-1-111-111-1-1-1-1-111-111-|
|-1-1-1-1-111-111-1-1-1-1-111-111-|
  * * * * *** *** * * * * *** ***




|-----------------||-----------------|
|-----------------||-----------------|
|-----------------||-----------------|
|-----------------||-----------------|
|-0-0-3-3-2-2-1-1-||-0-0-3-3-2-0-2-3-|
|-0-0-3-3-2-2-1-1-||-0-0-3-3-2-0-2-3-|    

Added On December 12th, 2013

SHARE

Comments

blog comments powered by Disqus