Slick Shoes Tabs

Joes Sick

1 versions

TAB

            Slick Shoes
                                    Joe's Sick
......=palm mute


intro
--------------------------------------------------------------------|
--------------------------------------------------------------------|
--------------------------------------------------------------------|
--------------------------------------------------------------------|  x2
2-2-2-2-3-4-3-4-2-2-2-2-4-3-1-3-2-2-2-2-3-4-3-4-8-8-8-6-6-6-4-4-4---|
0-0-0-0---------0-0-0-0---------0-0-0-0-----------------------------|
.......   ..... .......   ..... .......   ..... .................


verse
-----------------------------------------------------------------|
-----------------------------------------------------------------|
-----------------------------------------------------------------|
-----------------------------------------------------------------|
6-6-6-6-6-6-6-6-3-3-3-3-3-3-3-3-4-4-4-4-4-4-4-4-3-3-3-3-3-3-3-3--|
4-4-4-4-4-4-4-4-4-4-4-4-4-4-4-4-4-4-4-4-4-4-4-4-4-4-4-4-4-4-4-4--|


solo
--------------------------------------------------------------------------|
----------3-3/5-3-8-8-8/10-10/12-10-8-7-7-7-5-5-5-3-5-5/7-3---------------|
1----3-5-1---------8----------------------------------------6-6-6-5-3-5---|
------------------------------------------------------------------------1-|
--------------------------------------------------------------------------|
--------------------------------------------------------------------------|


outro
---------------------------------------------------|
---------------------------------------------------|
8--------------------------------------------------|
6--------------5-5-5-5-5-5-6-6-6-6-6-6-7-7-7-7-7-7-|
---6-6-6-6-6-6-3-3-3-3-3-3-4-4-4-4-4-4-5-5-5-5-5-5-|
---4-4-4-4-4-4-------------------------------------|    

Added On December 16th, 2013

SHARE

Comments

blog comments powered by Disqus

ADVERTISEMENT