Slipknot Tabs

5 The Gray Chapter

1 versions

TAB

            SLIPKNOT

.5: THE GRAY CHAPTER








SLIPKNOT

SARCASTROPHE

A-E-A-D-F#-B


TABBED BY andherembrace


video reference

https://drive.google.com/file/d/0B1AHRImLJJTYRHp2NEF4clRJd2c/view?pli=1




  
--------------------------------------------------------|
--------15-----15----15-----------10-----10-----10------|
--------------------------------------------------------|
----12-----12-----12----12-----7------7------7------7---|
--------------------------------------------------------|
-0--------------------------0---------------------------|


--------------------------------------------------------|
--------8------8-----8-------------3-----3-------3------|
--------------------------------------------------------|
----5------5------5-----5------0------0------0-------0--|
--------------------------------------------------------|
-0-------------------------0----------------------------|


--------------------------------------------------------|
--------15-----15----15-----------10-----10-----10------|
--------------------------------------------------------|
----12-----12-----12----12-----7------7------7------7---|
--------------------------------------------------------|
-0--------------------------0---------------------------|


------------------------------------------------------------------------------|
--------8------8-----8-------------3-----3-------3-------3-----3-------3------|
------------------------------------------------------------------------------|
----5------5------5-----5------0------0------0-------0------0------0-------0--|
------------------------------------------------------------------------------|
-0-------------------------0--------------------------------------------------|



0:21


W/HARMONY SET TO +1 OCTAVE
----------------------------------------------------------------------------|
----------------3------3------3---------------------------------------------|
-----------0------0------0------0--------------0---------2------2-----------|
---------5---5------5------5------5----------5---5---------0------0-----0---|
-----5/6---------------------------------5/6----------3------3------3-3-----|
-0-----------------------------------0--------------3-----------------------|



----------------------------------------------------------------------------|
----------------3------3------3---------------------------------------------|
-----------0------0------0------0--------------0---------2------2-----------|
---------5---5------5------5------5----------5---5---------0------0-----0---|
-----5/6---------------------------------5/6----------3------3------3-3-----|
-0-----------------------------------0--------------3-----------------------|





0:40

----------------------------------------------------------------------------|
----------------------------------------------------------------------------|
----------------------------------------------------------------------------|
----------------------------------------------------------------------------|
--------12-12-------------10-10--------------12-12-------------10-10--------|
-\-0----12-12~---/-\-0----10-10~---/--\-0----12-12~---/-\-0----10-10~-------|






1:00


L
----------------------------------------------------------------------------|
----------------------------------------------------------------------------|
----------------------------------------------------------------------------|
------------------------------------------------------------------------3---|
-0----------------------0--1--0-------0-----------------------1--0------1---|
-0----------------------0--1--0-------0-----------------------1--0----------|
   |                            |       |                          |
R
--------------------------------------------------------------------------|
--------------------------------------------------------------------------|
----------___---------------------------------___---------------------3---|
---------/   \----___------------------------/   \----___-------------3---|
--------5-6-5-6--/   \------------1---------5-6-5-6--/   \------------1---|
-0--5-6---------5-6-5-6-0--1-0--0-1--0--5-6---------5-6-5-6-0--1-0--0-----|
                                *                                   *


L
----------------------------------------------------------------------------|
----------------------------------------------------------------------------|
----------------------------------------------------------------------------|
--------------------------------------------------------------------^-------|
-0----------------------0----------1--0----------------------------1-0------|
-0----------------------0----------1--0------------/-\-----1-0-1-3-----1-3--|
   |                      |             |                      
R
----------------------------------------------------------------------------|
----------------------------------------------------------------------------|
----------___---------------------------------___---------------------------|
---------/   \----___------------------------/   \----___------------^------|
--------5-6-5-6--/   \------------1---------5-6-5-6--/   \----------1-0-----|
-0--5-6---------5-6-5-6-0--1-0--0-1--0--5-6---------5-6-5-6-1-0-1-3-----1-3-|
                                *                                    







1:10

--------------------------------------------------------------------------|
--------------------------------------------------------------------------|
----------___---------------------------------___---------------------3---|
---------/   \----___------------------------/   \----___-------------3---|
-----^--5-6-5-6--/   \------------1------^--5-6-5-6--/   \------------1---|
-0--5-6---------5-6-5-6-0--1-0--0-1--0--5-6---------5-6-5-6-0--1-0--0-----|
                                *                                   *

----------------------------------------------------------------------------|
----------------------------------------------------------------------------|
----------___---------------------------------___---------------------------|
---------/   \----___------------------------/   \----___------------^------|
-----^--5-6-5-6--/   \------------1------^--5-6-5-6--/   \----------1-0-----|
-0--5-6---------5-6-5-6-0--1-0--0-1--0--5-6---------5-6-5-6-1-0-1-3-----1-3-|
                                *                                    




1:19

----------------------------------------------------------|
----------------------------------------------------------|
----------------------------------------------------------|
-----------------------------------------------------3----|
---------^---------------1----------^----------------1----|
-0--0-0-1-0-0-1-0--1-0-0-1--0--0-0-1-0-0-1-0--1-0-0-------|
    * *                *       * *                *


-----------------------------------------------------------|
-----------------------------------------------------------|
-----------------------------------------------------------|
----------------------------------------------------^------|
---------^---------------1----------^--------------1-0-----|
-0--0-0-1-0-0-1-0--1-0-0-1--0--0-0-1-0-0-1-1-0-1-3-----1-3-|
    * *                *       * *          

----------------------------------------------------------|
----------------------------------------------------------|
----------------------------------------------------------|
-----------------------------------------------------3----|
---------^---------------1----------^----------------1----|
-0--0-0-1-0-0-1-0--1-0-0-1--0--0-0-1-0-0-1-0--1-0-0-------|
    * *                *       * *                *


-----------------------------------------------------------|
-----------------------------------------------------------|
-----------------------------------------------------------|
----------------------------------------------------^------|
---------^---------------1----------^--------------1-0-----|
-0--0-0-1-0-0-1-0--1-0-0-1--0--0-0-1-0-0-1-1-0-1-3-----1-3-|
    * *                *       * *               






1:38


L
----------------------------------------------------------------------------------|
----------------------------------------------------------------------------------|
------------------________________------------------------------------------------|
------------------)||||||||||||||(------------------------------------------------|
-99999999999999999999999999999999999999999999999912121212121212121212121212121212-|
----------------------------------------------------------------------------------|

R
------------------------------------------------------------------|
------------------------------------------------------------------|
------------------________________--------------------------------|
------------------)||||||||||||||(--------------------------------|
-5555555555555555555555555555555555555555555555558888888888888888-|
------------------------------------------------------------------|



L
----------------------------------------------------------------------------------|
----------------------------------------------------------------------------------|
------------------________________------------------------------------------------|
------------------)||||||||||||||(------------------------------------------------|
-99999999999999999999999999999999999999999999999912121212121212121212121212121212-|
----------------------------------------------------------------------------------|


R
----------------------------------------------------------------------------------|
----------------------------------------------------------------------------------|
------------------________________------------------------------------------------|
------------------)||||||||||||||(------------------------------------------------|
-55555555555555555555555555555555555555555555555512121212121212121212121212121212-|
----------------------------------------------------------------------------------|






1:48

--------------------------------------------------|
--------------------------------------------------|
--------------------------------------------------|
--------------------------------------------------|
--------------------------------------------------|
--6--1---0-1-1-0-4-4-0-1--6--1---0-1-1-0-1-1-0-1--|

 ARTIFICIAL HARMONY  EQUIVELENT
-----------------------------------------------------------|
-----------------------------------------------------------|
-----------------------------------------------------------|
-10-6---------------------10-6--12-13-13-12-13-13-12-13-13-|
-----------------------------------------------------------|
-------0-1-1-0-4-4-0-1-------------------------------------|


--------------------------------------------------|
--------------------------------------------------|
--------------------------------------------------|
--------------------------------------------------|
--------------------------------------------------|
--6--1---0-1-1-0-4-4-0-1--6--1---0-6-6-0-6-6-0-6--|


---------------------------------------------------|
---------------------------------------------------|
---------------------------------------------------|
-10-6---------------------10-6---------------------|
---------------------------------------------------|
-------0-1-1-0-4-4-0-1----------0-6-6-0-6-6-0-6----|







1:56

--------------------------------------------------------------------------|
--------------------------------------------------------------------------|
----------___---------------------------------___---------------------3---|
---------/   \----___------------------------/   \----___-------------3---|
-----^--5-6-5-6--/   \------------1------^--5-6-5-6--/   \------------1---|
-0--5-6---------5-6-5-6-0--1-0--0-1--0--5-6---------5-6-5-6-0--1-0--0-----|
                                *                                   *

----------------------------------------------------------------------------|
----------------------------------------------------------------------------|
----------___---------------------------------___---------------------------|
---------/   \----___------------------------/   \----___------------^------|
-----^--5-6-5-6--/   \------------1------^--5-6-5-6--/   \----------1-0-----|
-0--5-6---------5-6-5-6-0--1-0--0-1--0--5-6---------5-6-5-6-1-0-1-3-----1-3-|
                                *                                    






L                              B
---------------------------------------------------------|
---------------------------------------------------------|
---------------------------------------------------------|
-----------------------------------------------------3---|
---------^---------------1----------^----------------1---|
-0--0-0-1-0-0-1-0--1-0-0-1--0--0-0-1-0-0-1-0--1-0-0------|
    * *                *       * *                *


---------------------------------------------------------|
---------------------------------------------------------|
---------------------------------------------------------|
-----------------------------------------------------3---|
---------^---------------1----------^----------------1---|
-0--0-0-1-0-0-1-0--1-0-0-1--0--0-0-1-0-0-1-0--1-0-0------|
    * *                *       * *                *


-----------------------------------------------------------|
-----------------------------------------------------------|
-----------------------------------------------------------|
----------------------------------------------------^------|
---------^---------------1----------^--------------1-0-----|
-0--0-0-1-0-0-1-0--1-0-0-1--0--0-0-1-0-0-1-1-0-1-3-----1-3-|
    * *                *       * *                


---------------------------------------------------------|
---------------------------------------------------------|
---------------------------------------------------------|
-----------------------------------------------------3---|
---------^---------------1----------^----------------1---|
-0--0-0-1-0-0-1-0--1-0-0-1--0--0-0-1-0-0-1-0--1-0-0------|
    * *                *       * *                * 


-----------------------------------------------------------|
-----------------------------------------------------------|
-----------------------------------------------------------|
----------------------------------------------------^------|
---------^---------------1----------^--------------1-0-----|
-0--0-0-1-0-0-1-0--1-0-0-1--0--0-0-1-0-0-1-1-0-1-3-----1-3-|
    * *                *       * *                





2:29


----------------------------------------------------------|
----------------------------------------------------------|
------------------------------------------___-------------|
-----------------------------------------/   \---^--------|
------------5------------5------------0-5-6-5-0-5-0-------|
-6~\--0-5-6---6~\--0-5-6---6~\--0-5-6---------------6-7---|


----------------------------------------------------------|
----------------------------------------------------------|
------------------------------------------___-------------|
-----------------------------------------/   \---^--------|
------------5------------5------------0-5-6-5-0-5-0-------|
-6~\--0-5-6---6~\--0-5-6---6~\--0-5-6---------------6-0---|



----------------------------------------------------------|
----------------------------------------------------------|
------------------------------------------___-------------|
-----------------------------------------/   \---^--------|
------------5------------5------------0-5-6-5-0-5-0-------|
-6~\--0-5-6---6~\--0-5-6---6~\--0-5-6---------------6-7---|


----------------------------------------------------------|
----------------------------------------------------------|
------------------------------------------___-------------|
-----------------------------------------/   \---^--------|
------------5------------5------------0-5-6-5-0-5-0-1-----|
-6~\--0-5-6---6~\--0-5-6---6~\--0-5-6---------------1-----|






2:48


L
-------------------------------------------------|
-------------------------------------------------|
-------------------------------------------------|
------------------------------------------PH-----|
-0--1--0--1--0--1--6--5--0--1--0--1--0--1-2-PH---|
-0--1--0--1--0--1--6--5--0--1--0--1--0--1----3~--|
 *  *  *  *  *  *  *  *  *  *  *  *  *  *

R
-------------------------------------------------|
-------------------------------------------------|
-------------------------------------------------|
-------------------------------------------------|
-0--1--0--1--0--1--6--5--0--1--0--1--0--1---)-(--|
-0--1--0--1--0--1--6--5--0--1--0--1--0--1--1-----|
 *  *  *  *  *  *  *  *  *  *  *  *  *  *



L
-------------------------------------------------|
-------------------------------------------------|
-------------------------------------------------|
------------------------------------------PH-----|
-0--1--0--1--0--1--6--5--0--1--0--1--0--1-3-PH---|
-0--1--0--1--0--1--6--5--0--1--0--1--0--1----2~--|
 *  *  *  *  *  *  *  *  *  *  *  *  *  *

R
-------------------------------------------------|
-------------------------------------------------|
-------------------------------------------------|
-------------------------------------------------|
-0--1--0--1--0--1--6--5--0--1--0--1--0--1---)PH--|
-0--1--0--1--0--1--6--5--0--1--0--1--0--1--1-----|
 *  *  *  *  *  *  *  *  *  *  *  *  *  *










--------------------------------------------------------------------------|
--------------------------------------------------------------------------|
----------___---------------------------------___---------------------3---|
---------/   \----___------------------------/   \----___-------------3---|
-----^--5-6-5-6--/   \------------1------^--5-6-5-6--/   \------------1---|
-0--5-6---------5-6-5-6-0--1-0--0-1--0--5-6---------5-6-5-6-0--1-0--0-----|
                                *                                   *

----------------------------------------------------------------------------|
----------------------------------------------------------------------------|
----------___---------------------------------___---------------------------|
---------/   \----___------------------------/   \----___------------^------|
-----^--5-6-5-6--/   \------------1------^--5-6-5-6--/   \----------1-0-----|
-0--5-6---------5-6-5-6-0--1-0--0-1--0--5-6---------5-6-5-6-1-0-1-3-----1-3-|
                                *                                    


3:07

------------------------------------------------------|
------------------------------------------------------|
--------------___------------------------___----------|
-----^--5----/   \---^----------^--5----/   \---^-----|
----5-6---6-5-6-5-0-5-0--------5-6---6-5-6-5-0-5-0-1--|
-0----------------------6-7-0----------------------1--|


--------------------------------------------------------|
--------------------------------------------------------|
--------------___---------------------------------------|
-----^--5----/   \---^----------^--5------------^-------|
----5-6---6-5-6-5-0-5-0--------5-6---6---------1-0------|
-0----------------------6-7-0----------1-0-1-3-----1-3--|








3:17

1
-------------------------------------------------------------|
-------------------------------------------------------------|
-------------------------------------------------------------|
-------------------------------------------------------------|
-------------------------------------------------------------|
-1--1111-1--1111-1--1111-3--0--1--1111-1--1111-1--1111-5--3--|
    ****    ****    ****          ****    ****    ****
2
------------------------------------------------------------|
------------------------------------------------------------|
-8------------10-------7-----8--------12------10------------|
-X-------------X-------X-----X---------X-------X------------|
-6-------------8-------5-----6--------10-------8------------|
------------------------------------------------------------|
             /                      /

1
-------------------------------------------------------------|
-------------------------------------------------------------|
-------------------------------------------------------------|
-----------------------------5-------------------------------|
-----------------------------3-------------------------------|
-0--0000-0--0000-0--0000--1----0--0000-0--0000-0--0000-3--0--|
    ****    ****    ****          ****    ****    ****

2
-----------------------------------___-----------------------|
----------------------------------/   \----------------------|
-7-------------------------------7-8-7-5--7------------------|
-X-------------------------------X-X-X-X--X------------------|
-5-------------------------------5/6\5\3--5------------------|
-------------------------------------------------------------|


1
-------------------------------------------------------------|
-------------------------------------------------------------|
-------------------------------------------------------------|
-------------------------------------------------------------|
-------------------------------------------------------5--3--|
-1--1111-1--1111-1--1111-3--0--1--1111-1--1111-1--1111-5--3--|
    ****    ****    ****          ****    ****    ****
2
-------------------------------------------------------------|
-------------------------------------------------------------|
--17-----------15-14-15------------19------17------12--------|
---X------------X--X--X-------------X-------X-------X--------|
-/15-----------13\12-13------------17------15------10--------|
-------------------------------------------------------------|
                                /

1
-------------------------------------------------------------|
-------------------------------------------------------------|
-------------------------------------------------------------|
-----------------------------5-------------------------------|
-----------------------------3-------------------------------|
-0--0000-0--0000-0--0000--1----0--0000-0--0000-0--0000-3--0--|
    ****    ****    ****          ****    ****    ****

2
-------------------------------------------------------------|
-------------------------------------------------------------|
-14----------------------------------------------------------|
--X--------------P-------------------------------------------|
-12---------------S\-----------------------------------------|
-------------------------------------------------------------|






3:35


------------------------------------------------------|
------------------------------------------------------|
--------------___------------------------___----------|
-----^--5----/   \---^----------^--5----/   \---^-----|
----5-6---6-5-6-5-0-5-0--------5-6---6-5-6-5-0-5-0-1--|
-0----------------------6-7-0----------------------1--|


--------------------------------------------------------|
--------------------------------------------------------|
--------------___---------------------------------------|
-----^--5----/   \---^----------^--5------------^-------|
----5-6---6-5-6-5-0-5-0--------5-6---6---------1-0------|
-0----------------------6-7-0----------1-0-1-3-----1-3--|



------------------------------------------------------|
------------------------------------------------------|
--------------___------------------------___----------|
-----^--5----/   \---^----------^--5----/   \---^-----|
----5-6---6-5-6-5-0-5-0--------5-6---6-5-6-5-0-5-0-1--|
-0----------------------6-7-0----------------------1--|


-------------------------------------------------------------------------------|
-------------------------------------------------------------------------------|
--------------___--------------------------------------------------------------|
-----^--5----/   \---^----------^--5------------^------------------------------|
----5-6---6-5-6-5-0-5-0--------5-6---6---------1-0------1-3--1-3--1-3------1-3-|
-0----------------------6-7-0----------1-0-1-3-----1-3--1-3--1-3--1-3------1-3-|
                                       * * * *     * *  * *  * *  * *      * *




3:56



L
-------------------------------------------------|
-------------------------------------------------|
-------------------------------------------------|
------------------------------------------PH-----|
-0--1--0--1--0--1--6--5--0--1--0--1--0--1-3-PH---|
-0--1--0--1--0--1--6--5--0--1--0--1--0--1----2~--|
 *  *  *  *  *  *  *  *  *  *  *  *  *  *

R
-------------------------------------------------|
-------------------------------------------------|
-------------------------------------------------|
-------------------------------------------------|
-0--1--0--1--0--1--6--5--0--1--0--1--0--1---)PH--|
-0--1--0--1--0--1--6--5--0--1--0--1--0--1--1-----|
 *  *  *  *  *  *  *  *  *  *  *  *  *  *



L
-------------------------------------------------|
-------------------------------------------------|
-------------------------------------------------|
------------------------------------------PH-----|
-0--1--0--1--0--1--6--5--0--1--0--1--0--1-3-PH---|
-0--1--0--1--0--1--6--5--0--1--0--1--0--1----2~--|
 *  *  *  *  *  *  *  *  *  *  *  *  *  *

R
-------------------------------------------------|
-------------------------------------------------|
-------------------------------------------------|
-------------------------------------------------|
-0--1--0--1--0--1--6--5--0--1--0--1--0--1---)PH--|
-0--1--0--1--0--1--6--5--0--1--0--1--0--1--1-----|
 *  *  *  *  *  *  *  *  *  *  *  *  *  *







--------------------------------------------------------------------------|
--------------------------------------------------------------------------|
----------___---------------------------------___---------------------3---|
---------/   \----___------------------------/   \----___-------------3---|
-----^--5-6-5-6--/   \------------1------^--5-6-5-6--/   \------------1---|
-0--5-6---------5-6-5-6-0--1-0--0-1--0--5-6---------5-6-5-6-0--1-0--0-----|
                                *                                   *

---------------------------------------|
---------------------------------------|
----------___--------------------------|
---------/   \----___------------------|
-----^--5-6-5-6--/   \------------1--0-|
-0--5-6---------5-6-5-6-0--1-0--0-1--0-|
                                *                                    






L
----------------------------------------------------------------------------------|
----------------------------------------------------------------------------------|
------------------________________------------------------------------------------|
------------------)||||||||||||||(------------------------------------------------|
-99999999999999999999999999999999999999999999999912121212121212121212121212121212-|
----------------------------------------------------------------------------------|


R
------------------------------------------------------------------|
------------------------------------------------------------------|
------------------________________--------------------------------|
------------------)||||||||||||||(--------------------------------|
-5555555555555555555555555555555555555555555555558888888888888888-|
------------------------------------------------------------------|



L
----------------------------------------------------------------------------------|
----------------------------------------------------------------------------------|
------------------________________------------------------------------------------|
------------------)||||||||||||||(------------------------------------------------|
-99999999999999999999999999999999999999999999999912121212121212121212121212121212-|
----------------------------------------------------------------------------------|

R
----------------------------------------------------------------------------------|
----------------------------------------------------------------------------------|
------------------________________------------------------------------------------|
------------------)||||||||||||||(------------------------------------------------|
-55555555555555555555555555555555555555555555555512121212121212121212121212121212-|
----------------------------------------------------------------------------------|




4:24


L
-------------------------------------------------|
-------------------------------------------------|
-------------------8--7--------------------5--3--|
-------------------x--x--------------------x--x--|
-0--1--0--1--0--1--6--5--0--1--0--1--0--1--3--1--|
-0--1--0--1--0--1--------0--1--0--1--0--1--------|

R
-------------------------------------------------|
-------------------------------------------------|
-------------------------------------------------|
-------------------------------------------------|
-0--1--0--1--0--1--6--5--0--1--0--1--0--1--3--1--|
-0--1--0--1--0--1--6--5--0--1--0--1--0--1--3--1--|


L
-------------------------------------------------|
-------------------------------------------------|
-------------------8--7--------------------5--3--|
-------------------x--x--------------------x--x--|
-0--1--0--1--0--1--6--5--0--1--0--1--0--1--3--1--|
-0--1--0--1--0--1--------0--1--0--1--0--1--------|

R
-------------------------------------------------|
-------------------------------------------------|
-------------------------------------------------|
-------------------------------------------------|
-0--1--0--1--0--1--6--5--0--1--0--1--0--1--3--1--|
-0--1--0--1--0--1--6--5--0--1--0--1--0--1--3--1--|




L
--------------------------------------------------|
--------------------------------------------------|
-14-15-14-15-14-15-20-19-14-15-14-15-14-15-17-15--|
--X--X--X--X--X--X--X--X--X--X--X--X--X--X--X--X--|
-12-13-12-13-12-13-18-17-12-13-12-13-12-13-15-13--|
--------------------------------------------------|
R
-------------------------------------------------|
-------------------------------------------------|
-------------------------------------------------|
-------------------------------------------------|
-0--1--0--1--0--1--6--5--0--1--0--1--0--1--3--1--|
-0--1--0--1--0--1--6--5--0--1--0--1--0--1--3--1--|



L
--------------------------------------------------|
--------------------------------------------------|
-14-15-14-15-14-15-20-19-14-15-14-15-14-15-17-15--|
--X--X--X--X--X--X--X--X--X--X--X--X--X--X--X--X--|
-12-13-12-13-12-13-18-17-12-13-12-13-12-13-15-13--|
--------------------------------------------------|
R
-------------------------------------------------|
-------------------------------------------------|
-------------------------------------------------|
-------------------------------------------------|
-0--1--0--1--0--1--6--5--0--1--0--1--0--1--3--1--|
-0--1--0--1--0--1--6--5--0--1--0--1--0--1--3--1--|




4:42


--------------------------------------------------|
--------------------------------------------------|
--------------------------------------------------|
--------------------------------------------------|
--------------------------------------------------|
--6--1---0-1-1-0-4-4-0-1--6--1---0-1-1-0-1-1-0-1--|


--------------------------------------------------|
--------------------------------------------------|
--------------------------------------------------|
--------------------------------------------------|
--------------------------------------------------|
--6--1---0-1-1-0-4-4-0-1--6--1---0-6-6-0-6-6-0-6--|



--------------------------------------------------|
--------------------------------------------------|
--------------------------------------------------|
--------------------------------------------------|
--------------------------------------------------|
--6--1---0-1-1-0-4-4-0-1--6--1---0-1-1-0-1-1-0-1--|


------------------------------------------------|
------------------------------------------------|
------------------------------------------------|
------------------------------------------------|
-----------------------------------------3-2-1--|
--6--1---0-1-1-0-4-4-0-1--6--1---0-1-1-0-3-2-1--|
                                         * * *










\\\\\\\\\\\\\\\\\\\\\\\\\\\\\\\\\\\\\\\\\\\\\\\\\\\\\\\\\\\\\\
\\\\\\\\\\\\\\\\\\\\\\\\\\\\\\\\\\\\\\\\\\\\\\\\\\\\\\\\\\\\\\
\\\\\\\\\\\\\\\\\\\\\\\\\\\\\\\\\\\\\\\\\\\\\\\\\\\\\\\\\\\\\\
\\\\\\\\\\\\\\\\\\\\\\\\\\\\\\\\\\\\\\\\\\\\\\\\\\\\\\\\\\\\\\








SLIPKNOT

AOV

B-F#-B-E-G#-C#


TABBED BY andherembrace






------------------------------------------------------|
------------------------------------------------------|
------------------------------------------------------|
------------------------------------------------------|
-----^------------------------^-----------------------|
-\-13-12-000000-10-00-15-00-13-12-000000-10-00-15-00--|
         ******    **    **       ******    **    **


-----------------------------------------------------------------------------|
-----------------------------------------------------------------------------|
-----------------------------------------------------__----------------------|
----------------------------------------------------/  \---------------------|
---^------------------------^---------------------12-13-12-------------------|
-13-12-000000-10-00-12-00-12-13-13-13-13-13-13-13----------15-13-15-13-12-13-|
       ******    **    **        *  *  *  *  *  *           *  *  *  *  *  *



------------------------------------------------------|
------------------------------------------------------|
------------------------------------------------------|
------------------------------------------------------|
-----^------------------------^-----------------------|
-\-13-12-000000-10-00-15-00-13-12-000000-10-00-15-00--|
         ******    **    **       ******    **    **


-----------------------------------------------------------------------------|
-----------------------------------------------------------------------------|
-----------------------------------------------------__----------------------|
----------------------------------------------------/  \---------------------|
---^------------------------^---------------------12-13-12-------------------|
-13-12-000000-10-00-12-00-12-13-13-13-13-13-13-13----------15-13-15-13-12-13-|
       ******    **    **        *  *  *  *  *  *           *  *  *  *  *  *




0:18

L
--------------------------------------------------------------------|
--------------------------------------------------------------------|
--------------------------------------------------------------------|
-------------------___________----------------------___________-----|
---^--------------/           \-----^--------------/           \----|
-13-12-00000000-12-14-15-14-12-14-13-12-00000000-14-15-17-15-14-15--|
       ********                         ********
R
----------------------------------------------------|
----------------------------------------------------|
----------------------------------------------------|
----------------_______------------------_______----|
--^------------/       \---^------------/       \---|
-1-0-00000000-0-2-3-2-0-2-1-0-00000000-2-3-5-3-2-3--|
     ********                 ********


L
--------------------------------------------------------------------------|
--------------------------------------------------------------------------|
--------------------------------------------------------------------------|
-------------------___________----------------------___________-----------|
---^--------------/           \-----^--------------/           \----------|
-13-12-00000000-12-14-15-14-12-14-13-12-00000000-14-15-17-15-14-15-13\12--|
       ********                         ********
R
--------------------------------------------------------|
--------------------------------------------------------|
--------------------------------------------------------|
----------------_______------------------_______--------|
--^------------/       \---^------------/       \---^---|
-1-0-00000000-0-2-3-2-0-2-1-0-00000000-2-3-5-3-2-3-1-0--|
     ********                 ********

L
--------------------------------------------------------------------------|
--------------------------------------------------------------------------|
--------------------------------------------------------------------------|
-------------------___________----------------------___________-----------|
---^--------------/           \-----^--------------/           \----------|
-13-12-00000000-12-14-15-14-12-14-13-12-00000000-14-15-17-15-14-15-13\12--|
       ********                         ********
R
--------------------------------------------------------|
--------------------------------------------------------|
--------------------------------------------------------|
----------------_______------------------_______--------|
--^------------/       \---^------------/       \---^---|
-1-0-00000000-0-2-3-2-0-2-1-0-00000000-2-3-5-3-2-3-1-0--|
     ********                 ********

L
--------------------------------------------------------------------------|
--------------------------------------------------------------------------|
--------------------------------------------------------------------------|
-------------------___________----------------------___________-----------|
---^--------------/           \-----^--------------/           \----------|
-13-12-00000000-12-14-15-14-12-14-13-12-00000000-14-15-17-15-14-15-13\12--|
       ********                         ********
R
--------------------------------------------------------|
--------------------------------------------------------|
--------------------------------------------------------|
----------------_______------------------_______--------|
--^------------/       \---^------------/       \---^---|
-1-0-00000000-0-2-3-2-0-2-1-0-00000000-2-3-5-3-2-3-1-0--|
     ********                 ********



L
--------------------------------------------------------------------------|
--------------------------------------------------------------------------|
--------------------------------------------------------------------------|
-------------------___________----------------------___________-----------|
---^--------------/           \-----^--------------/           \----------|
-13-12-00000000-12-14-15-14-12-14-13-12-00000000-14-15-17-15-14-15-13\12--|
       ********                         ********
R
--------------------------------------------------------|
--------------------------------------------------------|
--------------------------------------------------------|
----------------_______------------------_______--------|
--^------------/       \---^------------/       \---^---|
-1-0-00000000-0-2-3-2-0-2-1-0-00000000-2-3-5-3-2-3-1-0--|
     ********                 ********

L
--------------------------------------------------------------------------|
--------------------------------------------------------------------------|
--------------------------------------------------------------------------|
-------------------___________----------------------___________-----------|
---^--------------/           \-----^--------------/           \----------|
-13-12-00000000-12-14-15-14-12-14-13-12-00000000-14-15-17-15-14-15-13\12--|
       ********                         ********
R
--------------------------------------------------------|
--------------------------------------------------------|
--------------------------------------------------------|
----------------_______------------------_______--------|
--^------------/       \---^------------/       \---^---|
-1-0-00000000-0-2-3-2-0-2-1-0-00000000-2-3-5-3-2-3-1-0--|
     ********                 ********
L
--------------------------------------------------------------------------|
--------------------------------------------------------------------------|
--------------------------------------------------------------------------|
-------------------___________----------------------___________-----------|
---^--------------/           \-----^--------------/           \----------|
-13-12-00000000-12-14-15-14-12-14-13-12-00000000-14-15-17-15-14-15-13\12--|
       ********                         ********
R
--------------------------------------------------------|
--------------------------------------------------------|
--------------------------------------------------------|
----------------_______------------------_______--------|
--^------------/       \---^------------/       \---^---|
-1-0-00000000-0-2-3-2-0-2-1-0-00000000-2-3-5-3-2-3-1-0--|
     ********                 ********

L
-------------------------------------------------|
-------------------------------------------------|
-------------------------------------------------|
-------------------___________-------------------|
---^--------------/           \---8----7---11----|
-13-12-00000000-12-14-15-14-12-14-8----7---11----|
       ********                        
R
-------------------------------------------------|
-------------------------------------------------|
-------------------------------------------------|
----------------_______--------------------------|
--^------------/       \---8----7-----11---------|
-1-0-00000000-0-2-3-2-0-2--8----7-----11---------|
     ********           






0:47

--------------------------------------------------------------------------------|
--------------------------------------------------------------------------------|
-----------_-------_---------7-10-----------------_-------_---------3-6---------|
----------/ \-----/ \--------5-8-----------------/ \-----/ \--------1-4---------|
-1-0-----5-8-5---5-6-5-1-0---5/8----8---1-0-----5-8-5---5-6-5-1-0---1/4---4-----|
-1-0-0-0-------6-5-6-5-1-0-0------0-8-0-1-0-0-0-------6-5-6-5-1-0-0-----0-4-0---|
     * *                   *      *   *     * *                   *     *   *


--------------------------------------------------------------------------------|
--------------------------------------------------------------------------------|
-----------_-------_---------7-10-----------------_-------_---------3-6---------|
----------/ \-----/ \--------5-8-----------------/ \-----/ \--------1-4---------|
-1-0-----5-8-5---5-6-5-1-0---5/8----8---1-0-----5-8-5---5-6-5-1-0---1/4---4-----|
-1-0-0-0-------6-5-6-5-1-0-0------0-8-0-1-0-0-0-------6-5-6-5-1-0-0-----0-4-0---|
     * *                   *      *   *     * *                   *     *   *




1:02

--------------------------------------------------------------|
--------------------------------------------------------------|
--------------------------------------------------------------|
--------------------------------------------------------------|
-5-5-5-5-5-5---8--8-8-8-8-10-8-1--1-1-1-1-3-1-0--0---4--4-----|
-5-5-5-5-5-5-0-8--8-8-8-8-10-8-1--1-1-1-1-3-1-0--0-0-4--4-0---|
             *                                     *      *

---------------------------------------------------------------|
---------------------------------------------------------------|
---------------------------------------------------------------|
---------------------------------------------------------------|
-5--5-5-5-5-5---8--8-8-8-8-10-8-1--1-1-1-1-3-1-0--0---4--4-4---|
-5--5-5-5-5-5-0-8--8-8-8-8-10-8-1--1-1-1-1-3-1-0--0-0-4--4-4-0-|
              *                                     *        *




1:16


L
-------------------------------------------------------------------|
-------------------------------------------------------------------|
-------------------------------------------------------------------|
-8--8--8-12--8-7-8-10-12-10--8-7--8--8--8-12--8-7--8-10-12-10--8-7-|
-5--5--5--8--5-3-5--7--8--7--5-3--5--5--5--8--5-3--5--7--8--7--5-3-|
-5--5--5--8--5-3-5--7--8--7--5-3--5--5--5--8--5-3--5--7--8--7--5-3-|
         /                                /
R
-------------------------------------------------------------------|
-------------------------------------------------------------------|
-------------------------------------------------------------------|
-------------------------------------------------------------------|
-5--5--5--8--5-3-5--7--8--7--5-3--5--5--5--8--5-3-5--7--8--7--5-3--|
-5--5--5--8--5-3-5--7--8--7--5-3--5--5--5--8--5-3-5--7--8--7--5-3--|
         /                                /




1:24

------------------------------------------------------|
------------------------------------------------------|
------------------------------------------------------|
------------------------------------------------------|
-----^------------------------^-----------------------|
---13-12-000000-10-00-15-00-13-12-000000-10-00-15-00--|
         ******    **    **       ******    **    **


-----------------------------------------------------------------------------|
-----------------------------------------------------------------------------|
-----------------------------------------------------__----------------------|
----------------------------------------------------/  \---------------------|
---^------------------------^---------------------12-13-12-------------------|
-13-12-000000-10-00-12-00-12-13-13-13-13-13-13-13----------15-13-15-13-12-13-|
       ******    **    **        *  *  *  *  *  *           *  *  *  *  *  *




L
--------------------------------------------------------------------|
--------------------------------------------------------------------|
--------------------------------------------------------------------|
-------------------___________----------------------___________-----|
---^--------------/           \-----^--------------/           \----|
-13-12-00000000-12-14-15-14-12-14-13-12-00000000-14-15-17-15-14-15--|
       ********                         ********
R
----------------------------------------------------|
----------------------------------------------------|
----------------------------------------------------|
----------------_______------------------_______----|
--^------------/       \---^------------/       \---|
-1-0-00000000-0-2-3-2-0-2-1-0-00000000-2-3-5-3-2-3--|
     ********                 ********



L                                OCTAVER IS USED,THIS IS EQUIVELENT
----------------------------------------------------------------------|
----------------------------------------------------------------------|
----------------------------------------------------------------------|
-------------------___________----8-8-8-8-8-8-8-8-7-7-7-7-11-11-11-11-|
---^--------------/           \---------------------------------------|
-13-12-00000000-12-14-15-14-12-14-------------------------------------|
       ********                   * * * * * * * * * * * *  *  *  *  * 
R
---------------------------------------------------------------|
---------------------------------------------------------------|
---------------------------------------------------------------|
----------------_______----------------------------------------|
--^------------/       \---------------------------------------|
-1-0-00000000-0-2-3-2-0-2-8-8-8-8-8-8-8-8-7-7-7-7-11-11-11-11--|
     ********             * * * * * * * * * * * *  *  *  *  *   




L
--------------------------------------------------------------------|
--------------------------------------------------------------------|
--------------------------------------------------------------------|
-------------------___________----------------------___________-----|
---^--------------/           \-----^--------------/           \----|
-13-12-00000000-12-14-15-14-12-14-13-12-00000000-14-15-17-15-14-15--|
       ********                         ********
R
----------------------------------------------------|
----------------------------------------------------|
----------------------------------------------------|
----------------_______------------------_______----|
--^------------/       \---^------------/       \---|
-1-0-00000000-0-2-3-2-0-2-1-0-00000000-2-3-5-3-2-3--|
     ********                 ********


L                                OCTAVER IS USED,THIS IS EQUIVELENT
-------------------------------------------------------------------|
-------------------------------------------------------------------|
-------------------------------------------------------------------|
-------------------___________----8-8-8-8-8-8-8-8-7-7-7-7-3-3-3-3--|
---^--------------/           \------------------------------------|
-13-12-00000000-12-14-15-14-12-14----------------------------------|
       ********                   * * * * * * * * * * * * * * * *    
R
-----------------------------------------------------------|
-----------------------------------------------------------|
-----------------------------------------------------------|
----------------_______------------------------------------|
--^------------/       \-----------------------------------|
-1-0-00000000-0-2-3-2-0-2-8-8-8-8-8-8-8-8-7-7-7-7-3-3-3-3--|
     ********             * * * * * * * * * * * * * * * * 




L
--------------------------------------------------------------------|
--------------------------------------------------------------------|
--------------------------------------------------------------------|
-------------------___________----------------------___________-----|
---^--------------/           \-----^--------------/           \----|
-13-12-00000000-12-14-15-14-12-14-13-12-00000000-14-15-17-15-14-15--|
       ********                         ********
R
----------------------------------------------------|
----------------------------------------------------|
----------------------------------------------------|
----------------_______------------------_______----|
--^------------/       \---^------------/       \---|
-1-0-00000000-0-2-3-2-0-2-1-0-00000000-2-3-5-3-2-3--|
     ********                 ********


L                                OCTAVER IS USED,THIS IS EQUIVELENT
----------------------------------------------------------------------|
----------------------------------------------------------------------|
----------------------------------------------------------------------|
-------------------___________----8-8-8-8-8-8-8-8-7-7-7-7-11-11-11-11-|
---^--------------/           \---------------------------------------|
-13-12-00000000-12-14-15-14-12-14-------------------------------------|
       ********                   * * * * * * * * * * * *  *  *  *  * 
R
---------------------------------------------------------------|
---------------------------------------------------------------|
---------------------------------------------------------------|
----------------_______----------------------------------------|
--^------------/       \---------------------------------------|
-1-0-00000000-0-2-3-2-0-2-8-8-8-8-8-8-8-8-7-7-7-7-11-11-11-11--|
     ********             * * * * * * * * * * * *  *  *  *  *   



L
--------------------------------------------------------------------|
--------------------------------------------------------------------|
--------------------------------------------------------------------|
-------------------___________----------------------___________-----|
---^--------------/           \-----^--------------/           \----|
-13-12-00000000-12-14-15-14-12-14-13-12-00000000-14-15-17-15-14-15--|
       ********                         ********
R
----------------------------------------------------|
----------------------------------------------------|
----------------------------------------------------|
----------------_______------------------_______----|
--^------------/       \---^------------/       \---|
-1-0-00000000-0-2-3-2-0-2-1-0-00000000-2-3-5-3-2-3--|
     ********                 ********


L                                
---------------------------------------------------|
---------------------------------------------------|
---------------------------------------------------|
-------------------___________---------------------|
---^--------------/           \----8---7---11------|
-13-12-00000000-12-14-15-14-12-14--8---7---11------|
       ********                   
R
---------------------------------------------------|
---------------------------------------------------|
---------------------------------------------------|
----------------_______----------------------------|
--^------------/       \---8---7---11--------------|
-1-0-00000000-0-2-3-2-0-2--8---7---11--------------|
     ********               






2:00







--------------------------------------------------------------------------------|
--------------------------------------------------------------------------------|
-----------_-------_---------7-10-----------------_-------_---------3-6---------|
----------/ \-----/ \--------5-8-----------------/ \-----/ \--------1-4---------|
-1-0-----5-8-5---5-6-5-1-0---5/8----8---1-0-----5-8-5---5-6-5-1-0---1/4---4-----|
-1-0-0-0-------6-5-6-5-1-0-0------0-8-0-1-0-0-0-------6-5-6-5-1-0-0-----0-4-0---|
     * *                   *      *   *     * *                   *     *   *


--------------------------------------------------------------------------------|
--------------------------------------------------------------------------------|
-----------_-------_---------7-10-----------------_-------_---------3-6---------|
----------/ \-----/ \--------5-8-----------------/ \-----/ \--------1-4---------|
-1-0-----5-8-5---5-6-5-1-0---5/8----8---1-0-----5-8-5---5-6-5-1-0---1/4---4-----|
-1-0-0-0-------6-5-6-5-1-0-0------0-8-0-1-0-0-0-------6-5-6-5-1-0-0-----0-4-0---|
     * *                   *      *   *     * *                   *     *   *


2:14

--------------------------------------------------------------|
--------------------------------------------------------------|
--------------------------------------------------------------|
--------------------------------------------------------------|
-5-5-5-5-5-5---8--8-8-8-8-10-8-1--1-1-1-1-3-1-0--0---4--4-----|
-5-5-5-5-5-5-0-8--8-8-8-8-10-8-1--1-1-1-1-3-1-0--0-0-4--4-0---|
             *                                     *      *

---------------------------------------------------------------|
---------------------------------------------------------------|
---------------------------------------------------------------|
---------------------------------------------------------------|
-5--5-5-5-5-5---8--8-8-8-8-10-8-1--1-1-1-1-3-1-0--0---4--4-4-4-|
-5--5-5-5-5-5-0-8--8-8-8-8-10-8-1--1-1-1-1-3-1-0--0-0-4--4-4-4-|
              *                                     *        



2:28

----------------------------------------------------------------------------------|
----------------------------------------------------------------------------------|
----------------------------------------------------------------------------------|
----------------------------------------------------------------------------------|
----------------------------------------------------------------------------------|
-5-5-5-5-5-5-5-8-8-8-8-8-8-10-8-13-13-13-13-13-13-13-13-12-12-12-12-12-12-12-12/\-|
                                               

----------------------------------------------------------------------------------|
----------------------------------------------------------------------------------|
----------------------------------------------------------------------------------|
----------------------------------------------------------------------------------|
-5-5-5-5-5-5-5-8-8-8-8-8-8-10-8-13-13-13-13-13-13-13-13-12-12-12-12-12-12-12-12---|
-5-5-5-5-5-5-5-8-8-8-8-8-8-10-8-13-13-13-13-13-13-13-13-12-12-12-12-12-12-12-12---|
                                               



L
-------------------------------------------------------------------|
-------------------------------------------------------------------|
-------------------------------------------------------------------|
-8--8--8-12--8-7-8-10-12-10--8-7--8--8--8-12--8-7--8-10-12-10--8-7-|
-5--5--5--8--5-3-5--7--8--7--5-3--5--5--5--8--5-3--5--7--8--7--5-3-|
-5--5--5--8--5-3-5--7--8--7--5-3--5--5--5--8--5-3--5--7--8--7--5-3-|
         /                                /
R
-------------------------------------------------------------------|
-------------------------------------------------------------------|
-------------------------------------------------------------------|
-------------------------------------------------------------------|
-5--5--5--8--5-3-5--7--8--7--5-3--5--5--5--8--5-3-5--7--8--7--5-3--|
-5--5--5--8--5-3-5--7--8--7--5-3--5--5--5--8--5-3-5--7--8--7--5-3--|
         /                                /





2:44

------------------------------------------------------|
------------------------------------------------------|
------------------------------------------------------|
------------------------------------------------------|
-----^------------------------^-----------------------|
---13-12-000000-10-00-15-00-13-12-000000-10-00-15-00--|
         ******    **    **       ******    **    **

-----------------------------------------------------------------------------|
-----------------------------------------------------------------------------|
-----------------------------------------------------__----------------------|
----------------------------------------------------/  \---------------------|
---^------------------------^---------------------12-13-12-------------------|
-13-12-000000-10-00-12-00-12-13-13-13-13-13-13-13----------15-13-15-13-12-13-|
       ******    **    **        *  *  *  *  *  *           *  *  *  *  *  *

------------------------------------------------------|
------------------------------------------------------|
------------------------------------------------------|
------------------------------------------------------|
-----^------------------------^-----------------------|
---13-12-000000-10-00-15-00-13-12-000000-10-00-15-00--|
         ******    **    **       ******    **    **


----------------------------------------------------------------------------|
----------------------------------------------------------------------------|
----------------------------------------------------------------------------|
----------------------------------------------------------------------------|
---^------------------------^-----------------------^-----------------------|
-13-12-000000-10-00-12-00-12-13-13-13-13-13-13-13-12-13-13-13-13-13-13-13---|
       ******    **    **        *  *  *  *  *  *        *  *  *  *  *  *


L
---------------------------------------|
---------------------------------------|
-------------------_-------------------|
------------------/ \------------------|
--^--------------0-1-0-----------------|
-0-1-1-1-1-1-1-1-------1-1-3-3-1-1-0---|
     * * * * * *       * * * * * * *
R
---------------------------------------------------------|
---------------------------------------------------------|
-----------------------------__--------------------------|
----------------------------/  \-------------------------|
----^---------------------12-13-12-----------------------|
--12-13-13-13-13-13-13-13----------13-13-15-15-13-13-12--|
         *  *  *  *  *  *           *  *  *  *  *  *  *






3:01
GT 2 FILL
-----------|
----10-----|
-12--------|
-----------|
-----------|
-----------|

FADES IN
-------------------------------------------------------------------------------------|
---------------)(--^----------------)(--^--------------------------------------------|
----2---------2---0-2-----2--------2---0-2---0----------)(--^-----2------------------|
-0---------0-------------------------------------------2---0-2----------0-2-3-2-0-2--|
-----------------------3--------3----------1--------1----------3---------------------|
-------------------------------------------------------------------------------------|


-------------------------------------------------------------------------------------|
---------------)(--^----------------)(-----------------------------------------------|
----2---------2---0-2-----2--------2------2---0---------)(--^-----2------------------|
-0---------0-------------------------------------------2---0-2----------0-2-3-2-0-2--|
-----------------------3--------3------3----1--------1----------3--------------------|
-------------------------------------------------------------------------------------|



-------------------------------------------------------------------------------------------------|
-------------------------------------------------------------------------------------------------|
-------------------------------------------------------------------------------------------------|
-------------------------------------------------------------------------------------------------|
-------------------------------------------------------------------------------------------------|
-12-12-12-12-12-12-12-12-12-12-12-12-12-12-12-12-10-10-10-10-10-10-10-10-10-10-10-10-10-10-10-10-|

-------------------------------------------------------------------------|
-------------------------------------------------------------------------|
-------------------------------------------------------------------------|
-------------------------------------------------------------------------|
-------------------------------------------------------------------------|
-8-8-8-8-8-8-8-8-8-8-8-8-8-8-8-8-7-7-7-7-7-7-7-7-11-11-11-11-11-11-11-11-|


-------------------------------------------------------------------------------------------------|
-------------------------------------------------------------------------------------------------|
-------------------------------------------------------------------------------------------------|
-------------------------------------------------------------------------------------------------|
-------------------------------------------------------------------------------------------------|
-12-12-12-12-12-12-12-12-12-12-12-12-12-12-12-12-10-10-10-10-10-10-10-10-10-10-10-10-10-10-10-10-|

----------------------------------------------------------------------------|
----------------------------------------------------------------------------|
----------------------------------------------------------------------------|
----------------------------------------------------------------------------|
----------------------------------------------------------------------------|
-8-8-8-8-8-8-8-8-8-8-8-8-8-8-8-8-7-7-7-7-7-7-7-7-11-11-11-11-11-11-11-11-12-|






4:04


--------------------------------------------------------------------------------|
--------------------------------------------------------------------------------|
-----------_-------_---------7-10-----------------_-------_---------3-6---------|
----------/ \-----/ \--------5-8-----------------/ \-----/ \--------1-4---------|
-1-0-----5-8-5---5-6-5-1-0---5/8----8---1-0-----5-8-5---5-6-5-1-0---1/4---4-----|
-1-0-0-0-------6-5-6-5-1-0-0------0-8-0-1-0-0-0-------6-5-6-5-1-0-0-----0-4-0---|
     * *                   *      *   *     * *                   *     *   *


--------------------------------------------------------------------------------|
--------------------------------------------------------------------------------|
-----------_-------_---------7-10-----------------_-------_---------3-6---------|
----------/ \-----/ \--------5-8-----------------/ \-----/ \--------1-4---------|
-1-0-----5-8-5---5-6-5-1-0---5/8----8---1-0-----5-8-5---5-6-5-1-0---1/4---4-----|
-1-0-0-0-------6-5-6-5-1-0-0------0-8-0-1-0-0-0-------6-5-6-5-1-0-0-----0-4-----|
     * *                   *      *   *     * *                   *     *   


4:18

-----------------------------------------------------------------|
-----------------------------------------------------------------|
-----------------------------------------------------------------|
-----------------------------------------------------------------|
-----------------------------------------------------------------|
-5-5-5-5-5-5-0-8--8-8-8-8-10-8-1-1-1-1-1-1-3-1-0-0-0-0-4-4-4-4---|

L OTHER FILLS R
-------------|--------|
-------------|--------|
-12-10-------|-15-14--|
--X-X--------|--X--X--|
-10-8--------|-13-12--|
-------------|--------|




--------------------------------------------------------------|
--------------------------------------------------------------|
--------------------------------------------------------------|
--------------------------------------------------------------|
-5-5-5-5-5-5---8--8-8-8-8-10-8-1--1-1-1-1-3-1-0--0---4--4-----|
-5-5-5-5-5-5-0-8--8-8-8-8-10-8-1--1-1-1-1-3-1-0--0-0-4--4-0---|
             *                                     *      *

---------------------------------------------------------------|
---------------------------------------------------------------|
---------------------------------------------------------------|
---------------------------------------------------------------|
-5--5-5-5-5-5---8--8-8-8-8-10-8-1--1-1-1-1-3-1-0--0---4--4-4---|
-5--5-5-5-5-5-0-8--8-8-8-8-10-8-1--1-1-1-1-3-1-0--0-0-4--4-4-0-|
              *                                     *        *




L
----------------------------------------------------------------------------------|
----------------------------------------------------------------------------------|
----------------------------------------------------------------------------------|
----------------------------------------------------------------------------------|
----------------------------------------------------------------------------------|
-5-5-5-5-5-5-5-8-8-8-8-8-8-10-8-13-13-13-13-13-13-13-13-12-12-12-12-12-12-12-12-0-|
                                               
R
----------------------------------------------------------------------------------|
----------------------------------------------------------------------------------|
----------------------------------------------------------------------------------|
----------------------------------------------------------------------------------|
-5-5-5-5-5-5-5-8-8-8-8-8-8-10-8-13-13-13-13-13-13-13-13-12-12-12-12-12-12-12-12---|
-5-5-5-5-5-5-5-8-8-8-8-8-8-10-8-13-13-13-13-13-13-13-13-12-12-12-12-12-12-12-12-0-|
                                               


L
---------------------------------------------------------------------------------|
---------------------------------------------------------------------------------|
---------------------------------------------------------------------------------|
---------------------------------------------------------------------------------|
---------------------------------------------------------------------------------|
-5-5-5-5-5-5-5-8-8-8-8-8-8-10-8-13-13-13-13-13-13-15-13-12-12-12-12-16-16-16-/-\-|
                                               
R
--------------------------------------------------------------------------------|
--------------------------------------------------------------------------------|
--------------------------------------------------------------------------------|
--------------------------------------------------------------------------------|
-5-5-5-5-5-5-5-8-8-8-8-8-8-10-8-13-13-13-13-13-13-15-13-12-12-12-12-4-4-4-4-4---|
-5-5-5-5-5-5-5-8-8-8-8-8-8-10-8-13-13-13-13-13-13-15-13-12-12-12-12-4-4-4-4-4---|
                                               






-------------------------------------------------------------------|
-------------------------------------------------------------------|
-------------------------------------------------------------------|
-8--8--8-12--8-7-8-10-12-10--8-7--8--8--8-12--8-7--8-10-12-10--8-7-|
-5--5--5--8--5-3-5--7--8--7--5-3--5--5--5--8--5-3--5--7--8--7--5-3-|
-5--5--5--8--5-3-5--7--8--7--5-3--5--5--5--8--5-3--5--7--8--7--5-3-|
         /                                /
R
-------------------------------------------------------------------|
-------------------------------------------------------------------|
-------------------------------------------------------------------|
-------------------------------------------------------------------|
-5--5--5--8--5-3-5--7--8--7--5-3--5--5--5--8--5-3-5--7--8--7--5-3--|
-5--5--5--8--5-3-5--7--8--7--5-3--5--5--5--8--5-3-5--7--8--7--5-3--|
         /                                /





L
---------------------------------------------------------------------------------------------|
---------------------------------------------------------------------------------------------|
------------5--------------------5--------------------5----------------------_---------------|
------------5--------------------5--------------------5---------------------/ \--------------|
--^---------3----------^---------3----------^---------3----------^---------0-1-0---0---------|
-1-0-000000---00-3-00-1-0-000000---00-3-00-1-0-000000---00-3-00-0-1-111111-------3---3-1-0-1-|
     ******   **   **     ******   **   **     ******   **   **     ******       
R
---------------------------------------------------------------------------------------------|
---------------------------------------------------------------------------------------------|
------------5--------------------5--------------------5----------------------_---------------|
------------5--------------------5--------------------5---------------------/ \--------------|
--^---------3----------^---------3----------^---------3----------^---------0-1-0---0---------|
-1-0-000000---00-3-00-1-0-000000---00-3-00-1-0-000000---00-3-00-0-1-111111-------3---3-1-0-1-|
     ******   **   **     ******   **   **     ******   **   **     ******       



L
---------------------------------------------------------------------------------------------|
---------------------------------------------------------------------------------------------|
------------5--------------------5--------------------5----------------------_---------------|
------------5--------------------5--------------------5---------------------/ \--------------|
--^---------3----------^---------3----------^---------3----------^---------0-1-0---0---------|
-1-0-000000---00-3-00-1-0-000000---00-3-00-1-0-000000---00-3-00-0-1-111111-------3---3-1-0-1-|
     ******   **   **     ******   **   **     ******   **   **     ******       
R
---------------------------------------------------------------------------------------------|
---------------------------------------------------------------------------------------------|
------------5--------------------5--------------------5----------------------_---------------|
------------5--------------------5--------------------5---------------------/ \--------------|
--^---------3----------^---------3----------^---------3----------^---------0-1-0---0---------|
-1-0-000000---00-3-00-1-0-000000---00-3-00-1-0-000000---00-3-00-0-1-111111-------3---3-1-0-1-|
     ******   **   **     ******   **   **     ******   **   **     ******       




W/PREVIOUS RIFF

---------------------------------------------------------------------------------------------|
---------------------------------------------------------------------------------------------|
-14-14-14-14-14-14-14-14-14-14-14-14-12-12-12-12-12-12-12-12-7-7-7-7-7-7-7-7-7-7-7-7-7-7-7-7-|
--X--X--X--X--X--X--X--X--X--X--X--X--X--X--X--X--X--X--X--X-X-X-X-X-X-X-X-X-X-X-X-X-X-X-X-X-|
-12-12-12-12-12-12-12-12-12-12-12-12-10-10-10-10-10-10-10-10-5-5-5-5-5-5-5-5-5-5-5-5-5-5-5-5-|
---------------------------------------------------------------------------------------------|


--------------------------------------------------------------------------------------------|
--------------------------------------------------------------------------------------------|
-14-14-14-14-14-14-14-14-14-14-14-14-17-17-17-17-17-17-17-17-121212121212121212121212121212-|
--X--X--X--X--X--X--X--X--X--X--X--X--X--X--X--X--X--X--X--X--X-X-X-X-X-X-X-X-X-X-X-X-X-X-X-|
-12-12-12-12-12-12-12-12-12-12-12-12-15-15-15-15-15-15-15-15-101010101010101010101010101010-|
--------------------------------------------------------------------------------------------|


---------------------------------------------------------------------------------------------|
---------------------------------------------------------------------------------------------|
-14-14-14-14-14-14-14-14-14-14-14-14-12-12-12-12-12-12-12-12-7-7-7-7-7-7-7-7-7-7-7-7-7-7-7-7-|
--X--X--X--X--X--X--X--X--X--X--X--X--X--X--X--X--X--X--X--X-X-X-X-X-X-X-X-X-X-X-X-X-X-X-X-X-|
-12-12-12-12-12-12-12-12-12-12-12-12-10-10-10-10-10-10-10-10-5-5-5-5-5-5-5-5-5-5-5-5-5-5-5-5-|
---------------------------------------------------------------------------------------------|


--------------------------------------------------------------------------------------------|
--------------------------------------------------------------------------------------------|
-14-14-14-14-14-14-14-14-14-14-14-14-17-17-17-17-17-17-17-17-121212121212121212121212121212-|
--X--X--X--X--X--X--X--X--X--X--X--X--X--X--X--X--X--X--X--X--X-X-X-X-X-X-X-X-X-X-X-X-X-X-X-|
-12-12-12-12-12-12-12-12-12-12-12-12-15-15-15-15-15-15-15-15-101010101010101010101010101010-|
--------------------------------------------------------------------------------------------|









\\\\\\\\\\\\\\\\\\\\\\\\\\\\\\\\\\\\\\\\\\\\\\\\\\\\\\\\\\\\\\\\\\\\\\\\\\\\\\\
\\\\\\\\\\\\\\\\\\\\\\\\\\\\\\\\\\\\\\\\\\\\\\\\\\\\\\\\\\\\\\\\\\\\\\\\\\\\\\\\\\
\\\\\\\\\\\\\\\\\\\\\\\\\\\\\\\\\\\\\\\\\\\\\\\\\\\\\\\\\\\\\\\\\\\\\\\\\\\\\\\\\\
\\\\\\\\\\\\\\\\\\\\\\\\\\\\\\\\\\\\\\\\\\\\\\\\\\\\\\\\\\\\\\\\\\\\\\\\\\\\\\\\\\









SLIPKNOT

THE DEVIL IN I

A-E-A-D-F#-B

TABBED BY andherembrace

video reference
https://drive.google.com/file/d/0B1AHRImLJJTYMThoQ1J3akNMUms/view?pli=1


INTR0
---------------------------------------------------------------------------------|
---------------------------------------------------------------------------------|
---_-------------^---^-------------_--------------_---------------_--------------|
--/ \-----------7-8-7-8-7---------/ \------------/ \-------------/ \---------/[7]|
-5-7-8-7--3-5--------------8-5---5-7-8-7--3-5---5-7-8-----------5-7-8-7--3-5-----|
------------------------------------------------------8-7~~~~--------------------|
                                                




0:14

--------------------------------------------------------------|
--------------------------------------------------------------|
--------------------------------------------------------------|
-----------------------------------------------------__-------|
----------------------------------------------5------)(^------|
-000-00-000-00-000-00-000-000-000-00-000-00-6---6-0-1---0-----|
 *** ** *** ** *** ** *** *** *** ** *** **       

-----------------------------------------------------------|
-----------------------------------------------------------|
-----------------------------------------------------------|
-----------------------------------------------------------|
---------------------------------------------)(^---)(^-----|
-000-00-000-00-000-00-000-000-000-00-000-00-1---0-1---0----|
 *** ** *** ** *** ** *** *** *** ** *** **


--------------------------------------------------------------|
--------------------------------------------------------------|
--------------------------------------------------------------|
-----------------------------------------------------__-------|
----------------------------------------------5------)(-------|
-000-00-000-00-000-00-000-000-000-00-000-00-6---6-0-1---0-----|
 *** ** *** ** *** ** *** *** *** ** *** **       

-----------------------------------------------------------|
-----------------------------------------------------------|
-----------------------------------------------------------|
-----------------------------------------------------------|
---------------------------------------------)(^---)(^-----|
-000-00-000-00-000-00-000-000-000-00-000-00-1---0-1---0----|
 *** ** *** ** *** ** *** *** *** ** *** **




0:35


---------------------------------------------------------------|
---------------------------------------------------------------|
----1414141414141414-13-------------1414141414141414-13--------|
-----X-X-X-X-X-X-X-X--X--------------X-X-X-X-X-X-X-X--X--------|
-0--1212121212121212-11--\---3---0--1212121212121212-11--\---3-|
-0-------------------------0-3---0-------------------------0-3-|
                           *                               *
L
-------------------------------------------------------------------|
-------------------------------------------------------------------|
--------------------------------------------------14--12-----------|
---------------------------------------------------X---X-----------|
-888888881010101010101010121212121212121277777777-12--10-\--0-1-3-1|
------------------------------------------------------------0-1-3-1|
                                                            * * * 
R
---------------------------------------------------------|
---------------------------------------------------------|
---------------------------------------------------------|
---------------------------------------------------------|
-55555555777777778888888833333333-----------0-1-3-1------|
------------------------------------7--6----0-1-3-1------|
                                            * * * 

---------------------------------------------------------------|
---------------------------------------------------------------|
----1414141414141414-13-------------1414141414141414-13--------|
-----X-X-X-X-X-X-X-X--X--------------X-X-X-X-X-X-X-X--X--------|
-0--1212121212121212-11--\---3---0--1212121212121212-11--\---3-|
-0-------------------------0-3---0-------------------------0-3-|
                           *                               *

L
-------------------------------------------------------------------|
-------------------------------------------------------------------|
--------------------------------------------------14--12-----------|
---------------------------------------------------X---X-----------|
-888888881010101010101010121212121212121277777777-12--10-\--0-1-3-1|
------------------------------------------------------------0-1-3-1|
                                                            * * * 
R
---------------------------------------------------------|
---------------------------------------------------------|
---------------------------------------------------------|
---------------------------------------------------------|
-55555555777777778888888833333333-----------0-1-3-1------|
------------------------------------7--6----0-1-3-1--0---|
                                            * * * 



0:56
CLEAN

------------------------------------------------|
------------------------------------------------|
------------------------------------------------|
-12--10----14--12-----12--10---7----5----1------|
--x---x-----x---x------x---x---x----x----x------|
-12--10----14--12-----12--10---7----5----1---0--|


------------------------------------------------|
------------------------------------------------|
------------------------------------------------|
-12--10----14--12-----12--10---7----5----1------|
--x---x-----x---x------x---x---x----x----x------|
-12--10----14--12-----12--10---7----5----1---0--|


------------------------------------------------|
------------------------------------------------|
------------------------------------------------|
-12--10----14--12-----12--10---7----5----1------|
--x---x-----x---x------x---x---x----x----x------|
-12--10----14--12-----12--10---7----5----1---0--|


------------------------------------------------|
------------------------------------------------|
------------------------------------------------|
-12--10----14--12-----12--10----5---5---7-------|
--x---x-----x---x------x---x----5---5---7-------|
-12--10----14--12-----12--10----5---5---7---0---|


---------------------------------------------|
---------------------------------------------|
---------------------------------------------|
-12--10----14--12-----12--10---7----5--------|
--x---x-----x---x------x---x---x----x----3---|
-12--10----14--12-----12--10---7----5----3---|


1;49


---------------------------------------------------------------|
---------------------------------------------------------------|
----1414141414141414-13-------------1414141414141414-13--------|
-----X-X-X-X-X-X-X-X--X--------------X-X-X-X-X-X-X-X--X--------|
-0--1212121212121212-11--\---3---0--1212121212121212-11--\---3-|
-0-------------------------0-3---0-------------------------0-3-|
                           *                               *

L
----------------------------------------------------------------------------|
----------------------------------------------------------------------------|
----------------------------------------------------------14--12------------|
-----------------------------------------1010101010101010--X---X------------|
-8888888810101010101010101212121212121212-----------------12--10-\--0-1-3-1-|
--------------------------------------------------------------------0-1-3-1-|
                                                                    * * * 
R
---------------------------------------------------------|
---------------------------------------------------------|
---------------------------------------------------------|
---------------------------------------------------------|
-55555555777777778888888833333333-----------0-1-3-1------|
------------------------------------7--6----0-1-3-1------|
                                            * * * 



---------------------------------------------------------------|
---------------------------------------------------------------|
----1414141414141414-13-------------1414141414141414-13--------|
-----X-X-X-X-X-X-X-X--X--------------X-X-X-X-X-X-X-X--X--------|
-0--1212121212121212-11--\---3---0--1212121212121212-11--\---3-|
-0-------------------------0-3---0-------------------------0-3-|
                           *                               *

L
---------------------------------------------------------------------------------|
---------------------------------------------------------------------------------|
----------------------------------------------------------19--17-----------------|
-----------------------------------------------------------X---X-----------------|
-88888888101010101010101012121212121212121313131313131313-17--15-\--0-1-3-1------|
--------------------------------------------------------------------0-1-3-1------|
                                                                    * * * 
R
----------------------------------------------------------|
----------------------------------------------------------|
------------------------------------------15--14----------|
-------------------------------------------X---X----------|
-5555555577777777888888881010101010101010-13--12--0-1-3-1-|
--------------------------------------------------0-1-3-1-|
                                                  * * * 

2:10

L
----------------------------------------------------------------------------------|
----------------------------------------------------------------------------------|
------9--8--------------9-----------------------9--8------------9-----------------|
------7--6--------------7-----------------------7--6------------7-----------------|
-0----7--6-----1---0----7----5------)(^---0-----7--6----1---0---7-----)(^----1----|
-0----7--6---0-1---0----7--6---6-0-1---0--0-----7--6--0-1---0---7----1---0-0-1--0-|
             *                                        *                    *

R
----------------------------------------------------------------------------------|
----------------------------------------------------------------------------------|
----------------------------------------------------------------------------------|
----------------------------------------------------------------------------------|
-0----7--6-----1---0----7----5------)(^---0-----7--6----1---0---7-----)(^----1----|
-0----7--6---0-1---0----7--6---6-0-1---0--0-----7--6--0-1---0---7----1---0-0-1--0-|
             *                                        *                    *



2:22

------------------------------------------------|
------------------------------------------------|
------------------------------------------------|
-12--10----14--12-----12--10---7----5----1------|
--x---x-----x---x------x---x---x----x----x------|
-12--10----14--12-----12--10---7----5----1---0--|


------------------------------------------------|
------------------------------------------------|
------------------------------------------------|
-12--10----14--12-----12--10---7----5----1------|
--x---x-----x---x------x---x---x----x----x------|
-12--10----14--12-----12--10---7----5----1---0--|


------------------------------------------------|
------------------------------------------------|
------------------------------------------------|
-12--10----14--12-----12--10----5---5---7-------|
--x---x-----x---x------x---x----5---5---7-------|
-12--10----14--12-----12--10----5---5---7---0---|


---------------------------------------------|
---------------------------------------------|
---------------------------------------------|
-12--10----14--12-----12--10---7----5--------|
--x---x-----x---x------x---x---x----x----3---|
-12--10----14--12-----12--10---7----5----3---|




3:03


---------------------------------------------------------------|
---------------------------------------------------------------|
----1414141414141414-13-------------1414141414141414-13--------|
-----X-X-X-X-X-X-X-X--X--------------X-X-X-X-X-X-X-X--X--------|
-0--1212121212121212-11--\---3---0--1212121212121212-11--\---3-|
-0-------------------------0-3---0-------------------------0-3-|
                           *                               *

L
----------------------------------------------------------------------------|
----------------------------------------------------------------------------|
----------------------------------------------------------14--12------------|
-----------------------------------------1010101010101010--X---X------------|
-8888888810101010101010101212121212121212-----------------12--10-\--0-1-3-1-|
--------------------------------------------------------------------0-1-3-1-|
                                                                    * * * 
R
---------------------------------------------------------|
---------------------------------------------------------|
---------------------------------------------------------|
---------------------------------------------------------|
-55555555777777778888888833333333-----------0-1-3-1------|
------------------------------------7--6----0-1-3-1------|
                                            * * * 



---------------------------------------------------------------|
---------------------------------------------------------------|
----1414141414141414-13-------------1414141414141414-13--------|
-----X-X-X-X-X-X-X-X--X--------------X-X-X-X-X-X-X-X--X--------|
-0--1212121212121212-11--\---3---0--1212121212121212-11--\---3-|
-0-------------------------0-3---0-------------------------0-3-|
                           *                               *

L
---------------------------------------------------------------------------------|
---------------------------------------------------------------------------------|
----------------------------------------------------------19--17-----------------|
-----------------------------------------------------------X---X-----------------|
-88888888101010101010101012121212121212121313131313131313-17--15-\--0-1-3-1------|
--------------------------------------------------------------------0-1-3-1------|
                                                                    * * * 
R
----------------------------------------------------------|
----------------------------------------------------------|
------------------------------------------15--14----------|
-------------------------------------------X---X----------|
-5555555577777777888888881010101010101010-13--12--0-1-3-1-|
--------------------------------------------------0-1-3-1-|
                                                  * * * 




3:24


--------------------------------------------------------------|
--------------------------------------------------------------|
--------------------------------------------------------------|
-----------------------------------------------------__-------|
----------------------------------------------5------)(^------|
-000-00-000-00-000-00-000-000-000-00-000-00-6---6-0-1---0-----|
 *** ** *** ** *** ** *** *** *** ** *** **        

-----------------------------------------------------------|
-----------------------------------------------------------|
-----------------------------------------------------------|
-----------------------------------------------------------|
---------------------------------------------)(^---)(^-----|
-000-00-000-00-000-00-000-000-000-00-000-00-1---0-1---0----|
 *** ** *** ** *** ** *** *** *** ** *** **


--------------------------------------------------------------|
--------------------------------------------------------------|
--------------------------------------------------------------|
-----------------------------------------------------__-------|
----------------------------------------------5------)(^------|
-000-00-000-00-000-00-000-000-000-00-000-00-6---6-0-1---0-----|
 *** ** *** ** *** ** *** *** *** ** *** **       

-----------------------------------------------------------|
-----------------------------------------------------------|
-----------------------------------------------------------|
-----------------------------------------------------------|
---------------------------------------------)(^---)(^-----|
-000-00-000-00-000-00-000-000-000-00-000-00-1---0-1---0----|
 *** ** *** ** *** ** *** *** *** ** *** **




3:44

----------------------------------------------------------|
----------------------------------------------------------|
----------------------------------------------------------|
----------------------------------------------------------|
-----121212121010101010101010----141414141212121212121212-|
-00001212121210101010101010100000141414141212121212121212-|



--------------------------------------------------------------|
--------------------------------------------------------------|
--------------------------------------------------------------|
----------------------------141414141414121212121212----------|
----12121212101010101010101012121212121210101010101013131313--|
0000121212121010101010101010------------------------13131313--|


----------------------------------------------------------|
----------------------------------------------------------|
----------------------------------------------------------|
----------------------------------------------------------|
-----121212121010101010101010----141414141212121212121212-|
-00001212121210101010101010100000141414141212121212121212-|



---------------------------------------------------------------------|
---------------------------------------------------------------------|
---------------------------------------------------------------------|
----------------------------141414141414121212121212-----------------|
----12121212101010101010101012121212121210101010101013131313-12---3--|
0000121212121010101010101010------------------------13131313-12\--3--|






4:10

---------------------------------------------------------------|
---------------------------------------------------------------|
----1414141414141414-13-------------1414141414141414-13--------|
-----X-X-X-X-X-X-X-X--X--------------X-X-X-X-X-X-X-X--X--------|
-0--1212121212121212-11--\---3---0--1212121212121212-11--\---3-|
-0-------------------------0-3---0-------------------------0-3-|
                           *                               *

L
-------------------------------------------------------------------|
-------------------------------------------------------------------|
--------------------------------------------------14--12-----------|
---------------------------------------------------X---X-----------|
-888888881010101010101010121212121212121277777777-12--10-\--0-1-3-1|
------------------------------------------------------------0-1-3-1|
                                                            * * * 
R
---------------------------------------------------------|
---------------------------------------------------------|
---------------------------------------------------------|
---------------------------------------------------------|
-55555555777777778888888833333333-----------0-1-3-1------|
------------------------------------7--6----0-1-3-1------|
                                            * * * 

---------------------------------------------------------------|
---------------------------------------------------------------|
----1414141414141414-13-------------1414141414141414-13--------|
-----X-X-X-X-X-X-X-X--X--------------X-X-X-X-X-X-X-X--X--------|
-0--1212121212121212-11--\---3---0--1212121212121212-11--\---3-|
-0-------------------------0-3---0-------------------------0-3-|
                           *                               *



L
----------------------------------------------------------------------------|
----------------------------------------------------------------------------|
----------------------------------------------------------14--12------------|
-----------------------------------------1010101010101010--X---X------------|
-8888888810101010101010101212121212121212-----------------12--10-\--0-1-3-1-|
--------------------------------------------------------------------0-1-3-1-|
                                                                    * * * 
R
---------------------------------------------------------|
---------------------------------------------------------|
---------------------------------------------------------|
---------------------------------------------------------|
-55555555777777778888888833333333-----------0-1-3-1------|
------------------------------------7--6----0-1-3-1------|
                                            * * * 



---------------------------------------------------------------|
---------------------------------------------------------------|
----1414141414141414-13-------------1414141414141414-13--------|
-----X-X-X-X-X-X-X-X--X--------------X-X-X-X-X-X-X-X--X--------|
-0--1212121212121212-11--\---3---0--1212121212121212-11--\---3-|
-0-------------------------0-3---0-------------------------0-3-|
                           *                               *

L
---------------------------------------------------------------------------------|
---------------------------------------------------------------------------------|
----------------------------------------------------------19--17-----------------|
-----------------------------------------------------------X---X-----------------|
-88888888101010101010101012121212121212121313131313131313-17--15-\--0-1-3-1------|
--------------------------------------------------------------------0-1-3-1------|
                                                                    * * * 
R
----------------------------------------------------------|
----------------------------------------------------------|
------------------------------------------15--14----------|
-------------------------------------------X---X----------|
-5555555577777777888888881010101010101010-13--12--0-1-3-1-|
--------------------------------------------------0-1-3-1-|
                                                  * * * 



4:40
L
----------------------------------------------------------------------------------|
----------------------------------------------------------------------------------|
------9--8--------------9-----------------------9--8------------9-----------------|
------7--6--------------7-----------------------7--6------------7-----------------|
-0----7--6-----1---0----7----5------)(^---0-----7--6----1---0---7-----)(^---)(^---|
-0----7--6---0-1---0----7--6---6-0-1---0--0-----7--6--0-1---0---7----1---0-1---0--|
             *                                        *                    

R
----------------------------------------------------------------------------------|
----------------------------------------------------------------------------------|
----------------------------------------------------------------------------------|
----------------------------------------------------------------------------------|
-0----7--6-----1---0----7----5------)(^---0-----7--6----1---0---7-----)(^---)(^---|
-0----7--6---0-1---0----7--6---6-0-1---0--0-----7--6--0-1---0---7----1---0-1---0--|
             *                                        *                    

L
----------------------------------------------------------------------------------|
----------------------------------------------------------------------------------|
------9--8--------------9-----------------------9--8------------9-----------------|
------7--6--------------7-----------------------7--6------------7-----------------|
-0----7--6-----1---0----7----5------)(^---0-----7--6----1---0---7-----)(^----1--0-|
-0----7--6---0-1---0----7--6---6-0-1---0--0-----7--6--0-1---0---7----1---0-0-1--0-|
             *                                        *                    *
R
----------------------------------------------------------------------------------|
----------------------------------------------------------------------------------|
----------------------------------------------------------------------------------|
----------------------------------------------------------------------------------|
-0----7--6-----1---0----7----5------)(^---0-----7--6----1---0---7-----)(^----1--0-|
-0----7--6---0-1---0----7--6---6-0-1---0--0-----7--6--0-1---0---7----1---0-0-1--0-|
             *                                        *                    *



------------------------------------------------|
------------------------------------------------|
------------------------------------------------|
-12--10----14--12-----12--10---7----5----1------|
--x---x-----x---x------x---x---x----x----x------|
-12--10----14--12-----12--10---7----5----1---0--|


------------------------------------------------|
------------------------------------------------|
------------------------------------------------|
-12--10----14--12-----12--10---7----5----1------|
--x---x-----x---x------x---x---x----x----x------|
-12--10----14--12-----12--10---7----5----1---0--|


------------------------------------------------|
------------------------------------------------|
------------------------------------------------|
-12--10----14--12-----12--10---7----5----1------|
--x---x-----x---x------x---x---x----x----x------|
-12--10----14--12-----12--10---7----5----1---0--|











\\\\\\\\\\\\\\\\\\\\\\\\\\\\\\\\\\\\\\\\\\\\\\\\\\\\\\\\\\\\\\\\\\\\\\
\\\\\\\\\\\\\\\\\\\\\\\\\\\\\\\\\\\\\\\\\\\\\\\\\\\\\\\\\\\\\\\\\\\\\\
\\\\\\\\\\\\\\\\\\\\\\\\\\\\\\\\\\\\\\\\\\\\\\\\\\\\\\\\\\\\\\\\\\\\\\\
\\\\\\\\\\\\\\\\\\\\\\\\\\\\\\\\\\\\\\\\\\\\\\\\\\\\\\\\\\\\\\\\\\\\\\\\











SLIPKNOT 

KILLPOP

B-F#-B-E-G#-C#


TABBED BY andherembrace





0:36

1
----------------------------------------------------------|
-13--13--13--13-12-12-12-12--13--13--13--13-12-12-12-12---|
--X---X---X---X--X--X--X--X---X---X---X---X--X--X--X--X---|
-10--10--10--10--9--9--9--9--10--10--10--10--9--9--9--9---|
----------------------------------------------------------|
----------------------------------------------------------|

2
-------------------------------------------------|
-8--8--8--8--7--7--7--7--8--8--8--8--7--7--7--7--|
-5--5--5--5--4--4--4--4--5--5--5--5--4--4--4--4--|
-5--5--5--5--4--4--4--4--5--5--5--5--4--4--4--4--|
-------------------------------------------------|
-------------------------------------------------|




1
-------------------------------------------------|
-7--7--7--7--8--8--8--8--7--7--7--7--8--8--8--8--|
-X--X--X--X--X--X--X--X--X--X--X--X--X--X--X--X--|
-4--4--4--4--5--5--5--5--4--4--4--4--5--5--5--5--|
-------------------------------------------------|
-------------------------------------------------|

2
-14----------15-------------14----------15-------------|
-----15----------17-------------15----------17---------|
-------------------------------------------------------|
-------------------------------------------------------|
-------------------------------------------------------|
-------------------------------------------------------|




1
-------------------------------------------------|
-7--7--7--7--8--8--8--8--7--7--7--7--8--8--8--8--|
-X--X--X--X--X--X--X--X--X--X--X--X--X--X--X--X--|
-4--4--4--4--5--5--5--5--4--4--4--4--5--5--5--5-/|
-------------------------------------------------|
-------------------------------------------------|

2
-14----------15-------------14----------15-------------|
-----15----------17-------------15----------17---------|
-------------------------------------------------------|
-------------------------------------------------------|
-------------------------------------------------------|
-------------------------------------------------------|




1
----------------------------------------------------------|
-13--13--13--13-12-12-12-12--13--13--13--13-12-12-12-12---|
--X---X---X---X--X--X--X--X---X---X---X---X--X--X--X--X---|
-10--10--10--10--9--9--9--9--10--10--10--10--9--9--9--9---|
----------------------------------------------------------|
----------------------------------------------------------|

2
-------------------------------------------------|
-8--8--8--8--7--7--7--7--8--8--8--8--7--7--7--7--|
-5--5--5--5--4--4--4--4--5--5--5--5--4--4--4--4--|
-5--5--5--5--4--4--4--4--5--5--5--5--4--4--4--4--|
-------------------------------------------------|
-------------------------------------------------|





1
-------------------------------------------------|
-7--7--7--7--8--8--8--8--7--7--7--7--8--8--8--8--|
-X--X--X--X--X--X--X--X--X--X--X--X--X--X--X--X--|
-4--4--4--4--5--5--5--5--4--4--4--4--5--5--5--5--|
-------------------------------------------------|
-------------------------------------------------|

2
-14----------15-------------14----------15-------------|
-----15----------17-------------15----------17---------|
-------------------------------------------------------|
-------------------------------------------------------|
-------------------------------------------------------|
-------------------------------------------------------|


1
-------------------------------------------------|
-7--7--7--7--8--8--8--8--7--7--7--7--8--8--8--8--|
-X--X--X--X--X--X--X--X--X--X--X--X--X--X--X--X--|
-4--4--4--4--5--5--5--5--4--4--4--4--5--5--5--5-/|
-------------------------------------------------|
-------------------------------------------------|

2
-14----------15-------------14----------15-------------|
-----15----------17-------------15----------17---------|
-------------------------------------------------------|
-------------------------------------------------------|
-------------------------------------------------------|
-------------------------------------------------------|







1:14


-------------------------------------------------------------------------|
-------------------------------------------------------------------------|
-------------------------------------------------------------------------|
-------------------------------------------------------------------------|
-------------------------------------------------------------------------|
-0-2~--5-4~--0-2-2-2-2-2-2-2-2-2-2-2-2-2-2-2-0-0-0-0-0-0-0-0-5-4~--0-4~--|
             * * * * * * * * * * * * * * * * * * * * * * * * 

--------------------------------------------------------------|
--------------------------------------------------------------|
--------------------------------------------------------------|
--------------------------------------------------------------|
--------------------------------------------------------------|
-2-2-2-2-2-2-2-2-2-2-2-2-2-2-2-2-0-0-0-0-0-0-0-0-8-7~--0-4~---|
 * * * * * * * * * * * * * * * * * * * * * * * * 





1:27

L
-------------------------------------------------------------|
-------------------------------------------------------------|
-------------------------------------------------------------|
-------------------------------------------------------------|
-------------------------------------------------------------|
2-2-2-2-2-2-2-2-2-2-2-2-2-2-5-5-5-5-4-4-4-4-4-4-4-4-4-4-4-4--|

R
------------------------------------------------------------|
------------------------------------------------------------|
------------------------------------------------------------|
------------------------------------------------------------|
------------------------------------------------------------|
2-2-2-2-2-2-2-2-2-2-2-2-2-2-5-5-5-5-4-4-4-4-4-4-4-4-4-4-4-4-|


L
--------------------------------------------------------------------------|
--------------------------------------------------------------------------|
--------------------------------------------------------------------------|
---------------------------------10-10-10-10-9-9-9-9-9-9-9-9-9-9-9-9-9-9--|
-7-7-7-7-6-6-6-6-6-6-6-6-6-6-6-6------------------------------------------|
--------------------------------------------------------------------------|

R
------------------------------------------------------------------------|
------------------------------------------------------------------------|
------------------------------------------------------------------------|
------------------------------------------------------------------------|
-3-3-3-3-2-2-2-2-2-2-2-2-2-2-2-2-3-3-3-3-2-2-2-2-2-2-2-2-2-2-2-2--------|
-----------------------------------------------------------------/-\----|



L
-------------------------------------------------------------|
-------------------------------------------------------------|
-------------------------------------------------------------|
-------------------------------------------------------------|
----------------------------5-5-5-5-7-7-4-4-4-4-4-4-4-4-4-4--|
2-2-2-2-2-2-2-2-2-2-2-2-2-2----------------------------------|

R
-------------------------------------------------------------|
-------------------------------------------------------------|
-------------------------------------------------------------|
-------------------------------------------------------------|
-------------------------------------------------------------|
2-2-2-2-2-2-2-2-2-2-2-2-2-2-5-5-5-5-7-7-4-4-4-4-4-4-4-4-4-4--|


L
-------------------------------------------------------------------------|
-------------------------------------------------------------------------|
-------------------------------------------------------------------------|
---------------------------------10-10-10-10-9-9-9-9-9-9-9-9-9-9-9-9-9-9-|
-7-7-7-7-6-6-6-6-6-6-6-6-6-6-6-6-----------------------------------------|
-------------------------------------------------------------------------|

R
-------------------------------------------------------------------------|
-------------------------------------------------------------------------|
-------------------------------------------------------_-----------------|
------------------------------------------------------/ \----------------|
-3-3-3-3-2-2-2-2-2-2-2-2-2-2-2-2-3-3-3-3-2-2-2-2-2-2-2-3-2-0-2-0---------|
-----------------------------------------------------------------5-4-5---|




1:56



FILTERED
------------------------------------------------------------------|
------------------------------------------------------------------|
-4-4-4-4-5-5-5-5-4-4-4-4-5-5-5-5-4-4-4-4-5-5-5-5-4-4-4-4-5-5-5-5--|
-4-4-4-4-5-5-5-5-4-4-4-4-5-5-5-5-4-4-4-4-5-5-5-5-4-4-4-4-5-5-5-5--|
------------------------------------------------------------------|
------------------------------------------------------------------|




1
----------------------------------------------------------|
-13--13--13--13-12-12-12-12--13--13--13--13-12-12-12-12---|
--X---X---X---X--X--X--X--X---X---X---X---X--X--X--X--X---|
-10--10--10--10--9--9--9--9--10--10--10--10--9--9--9--9---|
----------------------------------------------------------|
----------------------------------------------------------|

2
-------------------------------------------------|
-8--8--8--8--7--7--7--7--8--8--8--8--7--7--7--7--|
-5--5--5--5--4--4--4--4--5--5--5--5--4--4--4--4--|
-5--5--5--5--4--4--4--4--5--5--5--5--4--4--4--4--|
-------------------------------------------------|
-------------------------------------------------|





1
-------------------------------------------------|
-7--7--7--7--8--8--8--8--7--7--7--7--8--8--8--8--|
-X--X--X--X--X--X--X--X--X--X--X--X--X--X--X--X--|
-4--4--4--4--5--5--5--5--4--4--4--4--5--5--5--5--|
-------------------------------------------------|
-------------------------------------------------|

2
-14----------15-------------14----------15-------------|
-----15----------17-------------15----------17---------|
-------------------------------------------------------|
-------------------------------------------------------|
-------------------------------------------------------|
-------------------------------------------------------|




1
-------------------------------------------------|
-7--7--7--7--8--8--8--8--7--7--7--7--8--8--8--8--|
-X--X--X--X--X--X--X--X--X--X--X--X--X--X--X--X--|
-4--4--4--4--5--5--5--5--4--4--4--4--5--5--5--5--|
-------------------------------------------------|
-------------------------------------------------|

2
-14----------15-------------14----------15-------------|
-----15----------17-------------15----------17---------|
-------------------------------------------------------|
-------------------------------------------------------|
-------------------------------------------------------|
-------------------------------------------------------|







2:28


-------------------------------------------------------------------------|
-------------------------------------------------------------------------|
-------------------------------------------------------------------------|
-------------------------------------------------------------------------|
-------------------------------------------------------------------------|
-8-7~--0-4~--2-2-2-2-2-2-2-2-2-2-2-2-2-2-2-2-0-0-0-0-0-0-0-0-5-4~--0-4~--|
             * * * * * * * * * * * * * * * * * * * * * * * * 

--------------------------------------------------------------|
--------------------------------------------------------------|
--------------------------------------------------------------|
--------------------------------------------------------------|
--------------------------------------------------------------|
-2-2-2-2-2-2-2-2-2-2-2-2-2-2-2-2-0-0-0-0-0-0-0-0-8-7~--0-4~---|





L
-------------------------------------------------------------|
-------------------------------------------------------------|
-------------------------------------------------------------|
-------------------------------------------------------------|
-------------------------------------------------------------|
2-2-2-2-2-2-2-2-2-2-2-2-2-2-5-5-5-5-4-4-4-4-4-4-4-4-4-4-4-4--|

R
------------------------------------------------------------|
------------------------------------------------------------|
------------------------------------------------------------|
------------------------------------------------------------|
------------------------------------------------------------|
2-2-2-2-2-2-2-2-2-2-2-2-2-2-5-5-5-5-4-4-4-4-4-4-4-4-4-4-4-4-|


L
--------------------------------------------------------------------------|
--------------------------------------------------------------------------|
--------------------------------------------------------------------------|
---------------------------------10-10-10-10-9-9-9-9-9-9-9-9-9-9-9-9-9-9--|
-7-7-7-7-6-6-6-6-6-6-6-6-6-6-6-6------------------------------------------|
--------------------------------------------------------------------------|

R
------------------------------------------------------------------------|
------------------------------------------------------------------------|
------------------------------------------------------------------------|
------------------------------------------------------------------------|
-3-3-3-3-2-2-2-2-2-2-2-2-2-2-2-2-3-3-3-3-2-2-2-2-2-2-2-2-2-2-2-2--------|
-----------------------------------------------------------------/-\----|



L
-------------------------------------------------------------|
-------------------------------------------------------------|
-------------------------------------------------------------|
-------------------------------------------------------------|
----------------------------5-5-5-5-7-7-4-4-4-4-4-4-4-4-4-4--|
2-2-2-2-2-2-2-2-2-2-2-2-2-2----------------------------------|

R
-------------------------------------------------------------|
-------------------------------------------------------------|
-------------------------------------------------------------|
-------------------------------------------------------------|
-------------------------------------------------------------|
2-2-2-2-2-2-2-2-2-2-2-2-2-2-5-5-5-5-7-7-4-4-4-4-4-4-4-4-4-4--|





L
----------------------------------------------------------|
----------------------------------------------------------|
----------------------------------------------------------|
---------------------------------10-10-10-10-9-9-9-9-9-9--|
-7-7-7-7-6-6-6-6-6-6-6-6-6-6-6-6--------------------------|
----------------------------------------------------------|

R
-----------------------------------------------------|
-----------------------------------------------------|
-----------------------------------------------------|
-----------------------------------------------------|
-3-3-3-3-2-2-2-2-2-2-2-2-2-2-2-2-3-3-3-3-2-2-2-2-2-2-|
-----------------------------------------------------|



L
---------------------------------------------------------------------------------|
---------------------------------------------------------------------------------|
--^----^----^----^----^----^----^----^----^----^----^----^----^----^----^----^---|
-9-10-9-10-9-10-9-10-9-10-9-10-9-10-9-10-9-10-9-10-9-10-9-10-9-10-9-10-9-10-9-10-|
---------------------------------------------------------------------------------|
---------------------------------------------------------------------------------|

R
-----------------------------------------------------------------|
-----------------------------------------------------------------|
-----------------------------------------------------------------|
--^---^---^---^---^---^---^---^---^---^---^---^---^---^---^---^--|
-2-3-2-3-2-3-2-3-2-3-2-3-2-3-2-3-2-3-2-3-2-3-2-3-2-3-2-3-2-3-2-3-|
-----------------------------------------------------------------|





3:08


SOLO

   ///    ///    ///    ///    ///   ///                     
-/-15-----14--/--17-----15--/--19-----15------------------|
--------------------------------------------17~~-\--------|
----------------------------------------------------------|
----------------------------------------------------------|
----------------------------------------------------------|
----------------------------------------------------------|

RYTYHM THRU SOLO PLAYED TWICE
------------------------------------------------------------------|
------------------------------------------------------------------|
------------------------------------------------------------------|
-----------------4-5-----------------------------4-5--------------|
-2-0-2-4-5-4-2-4-2/3-2-4-5-4-2-4-2-0-2-4-5-4-2-4-2/3-2-4-5-4-2-4--|
-2-0-2-4-5-4-2-4-----2-4-5-4-2-4-2-0-2-4-5-4-2-4-----2-4-5-4-2-4--|


       ___________
      /           \     ___________
----14-15-17-15-14\12--/           \------__-------_____--------------------------------------|
-/-------------------12-13-15-13-12\11---/  \-----/     \----_______________------_____-------|
---------------------------------------11-12-14-14-12-11\9--/               \----/     \------|
-----------------------------------------------------------9-10-12-10-9-10-9\7-10-9-7-9-7-----|
-----------------------------------------------------------------------------------------10-7-|
----------------------------------------------------------------------------------------------|

     __           __________________________
----/  \---------/                          \------__---------|
--12-13-12-----12/13-17-15-13-15-13\12-13-12-10---/  \--------|
------------------------------------------------11-12-11-9----|
-/------------------------------------------------------------|
--------------------------------------------------------------|
--------------------------------------------------------------|

                             )()(
---------------------------12------|
-12----10--------------------------|
----9-----9--12----11--------------|
----------------9------9-----------|
-----------------------------------|
-----------------------------------|










------------------------------------------------------------------|
------------------------------------------------------------------|
------------------------------------------------------------------|
-----------------4-5-----------------------------4-5--------------|
-2-0-2-4-5-4-2-4-2/3-2-4-5-4-2-4-2-0-2-4-5-4-2-4-2/3-2-4-5-4-2-4--|
-2-0-2-4-5-4-2-4-----2-4-5-4-2-4-2-0-2-4-5-4-2-4-----2-4-5-4-2-4--|

------------------------------------------------------------------|
------------------------------------------------------------------|
------------------------------------------------------------------|
-----------------4-5-----------------------------4-5--------------|
-2-0-2-4-5-4-2-4-2/3-2-4-5-4-2-4-2-0-2-4-5-4-2-4-2/3-2-4-5-4-2-4--|
-2-0-2-4-5-4-2-4-----2-4-5-4-2-4-2-0-2-4-5-4-2-4-----2-4-5-4-2-4--|


------------------------------------------------------------------|
------------------------------------------------------------------|
------------------------------------------------------------------|
-----------------4-5-----------------------------4-5--------------|
-2-0-2-4-5-4-2-4-2/3-2-4-5-4-2-4-2-0-2-4-5-4-2-4-2/3-2-4-5-4-2-4--|
-2-0-2-4-5-4-2-4-----2-4-5-4-2-4-2-0-2-4-5-4-2-4-----2-4-5-4-2-4--|


--------------------------------------------------|
--------------------------------------------------|
--------------------------------------------------|
-----------------4-5------------------------------|
-2-0-2-4-5-4-2-4-2/3-2-4-5-4-2-4-2-0-2-4-5-4-2-4--|
-2-0-2-4-5-4-2-4-----2-4-5-4-2-4-2-0-2-4-5-4-2-4--|
                                 * * * * * * * *










\\\\\\\\\\\\\\\\\\\\\\\\\\\\\\\\\\\\\\\\\\\\\\\\\\\\\\\\\\\\\\\\\\\
\\\\\\\\\\\\\\\\\\\\\\\\\\\\\\\\\\\\\\\\\\\\\\\\\\\\\\\\\\\\\\\\\\\
\\\\\\\\\\\\\\\\\\\\\\\\\\\\\\\\\\\\\\\\\\\\\\\\\\\\\\\\\\\\\\\\\\\\
\\\\\\\\\\\\\\\\\\\\\\\\\\\\\\\\\\\\\\\\\\\\\\\\\\\\\\\\\\\\\\\\\\\\\













SLIPKNOT

SKEPTIC


B-F#-B-E-G#-C#


TABBED BY andherembrace




------------------------------------------------------------------|
------------------------------------------------------------------|
------------------------------------------------------------------|
------------------------------------------------------------------|
------------------------------------------------------------------|
\-001-0-1-0-1-4-1-001-0-1-0-1-4-1-001-0-1-0-1-4-1-001-0-1-001-0-1-|
  *** * * * * * * *** * * * * * * *** * * * * * * *** * * *** * *


------------------------------------------------------------------|
------------------------------------------------------------------|
------------------------------------------------------------------|
------------------------------------------------------------------|
------------------------------------------------------------------|
--001-0-1-0-1-4-1-001-0-1-0-1-4-1-001-0-1-0-1-4-1-001-0-1-001-0-1-|
  *** * * * * * * *** * * * * * * *** * * * * * * *** * * *** * *

----------------------------------|
----------------------------------|
----------------------------------|
----------------------------------|
----------------------------------|
--001-0-1-0-1-4-1-001-0-1-0-1-4-1-|
  *** * * * * * * *** * * * * * * 





0:16

----------------------------------------------|
----------------------------------------------|
----------------------------------------------|
----------------------------------------------|
-----------------------------^--3-------------|
004-3-1-0---0-110-0---0-110-3-4---4-3-0-1-4---|
*** * *   | * ***   | * ***                  
 

---------------------------------------------------------|
---------------------------------------------------------|
---------------------------------------------------------|
----------------------------------------^--3-------------|
---------------------------------------3-4---4-3-0-1-4---|
-004-3-1-0---0-110-0---0-110-0---0-110-------------------|
 *** * *   | * ***   | * ***   | * ***  
 


-------------------------------------------------------|
-------------------------------------------------------|
-------------------------------------------------------|
-------------------------------------------------------|
----------------------------------------^--3-----------|
-004-3-1-0---0-110-0---0-110-0---0-110-3-4---4-3-0-1-4-|
 *** * *   | * ***   | * ***   | * ***


---------------------------------------------------------|
---------------------------------------------------------|
---------------------------------------------------------|
----------------------------------------^--3-------------|
---------------------------------------3-4---4-3-0-1-4---|
-004-3-1-0---0-110-0---0-110-0---0-110-------------------|
 *** * *   | * ***   | * ***   | * ***  
 


0:39


R           L          B
------------------------------------------------------------------|
------------------------------------------------------------------|
------------------------------------------------------------------|
------------------------------------------------------------------|
---------------------------------------------------^--3-----------|
-004-3-1-0---0-110-0---0-110-0---0-110-0----0-110-3-4---4-3-0-1-4-|
 *** * *   | * ***   | * ***   | * ***   |  * *** 


R           L          B
------------------------------------------------------------------|
------------------------------------------------------------------|
------------------------------------------------------------------|
---------------------------------------------------^--3-----------|
--------------------------------------------------3-4---4-3-0-1-4-|
-004-3-1-0---0-110-0---0-110-0---0-110-0----0-110-----------------|
 *** * *   | * ***   | * ***   | * ***   |  * *** 



0:50



L
-----------------------------------------------------------------|
-----------------------------------6-6-8-8-----------------------|
-----------------------------------7-7-9-9---10-10-9-9-7-7-5-----|
-----------------------------------X-X-X-X----X--X-X-X-X-X-X-----|
-----------------------------------5-5/7-7----8--8\7-7\5-5\3-0---|
-3-3-3-3-3-3-3-2-2-2-2-2-2-5-3-0-0----------0--------------------|
                                            *
R
------------------------------------------------------------------|
------------------------------------------------------------------|
-----------------------------------7-7-9-9------------------------|
-----------------------------------X-X-X-X------------------------|
-----------------------------------5-5/7-7-----8--8-7-7-5-5-3-3---|
-3-3-3-3-3-3-3-2-2-2-2-2-2-5-3-0-0----------0-10-10\9-9\7-7\5-5---|
                                            *


L
-------------------------------------------------------------------|
------------------------------------6-6-8-8----11-111010-8-8-6-6---|
------------------------------------7-7-9-9----12-121010-9-9-7-7---|
------------------------------------X-X-X-X-----X--X-X-X-X-X-X-X---|
------------------------------------5-5/7-7----10-10\8-8\7-7\5-5---|
-3--3-3-3-3-3-3-2--2-2-2-5-3-2-0-0-----------0---------------------|
                                             *
R
---------------------------------------------------------------|
---------------------------------------------------------------|
------------------------------------7-7-9-9--------------------|
------------------------------------X-X-X-X--------------------|
------------------------------------5-5/7-7--------------------|
-3--3-3-3-3-3-3-2--2-2-2-5-3-2-0-0-----------0-5-5\3-3\2-2\0-0-|
                                             *





1:01

R
-----------------------|
-----------------------|
-----------------------|
-----------------------|
-----------------------|
005-3-1-0---0-110-0----|
*** * *   | * ***   |               
 

B
----------------------------------------------|
----------------------------------------------|
----------------------------------------------|
----------------------------------------------|
-----------------------------^--3-------------|
005-3-1-0---0-110-0---0-110-3-4---4-3-0-1-4---|
*** * *   | * ***   | * ***                  
 

---------------------------------------------------------|
---------------------------------------------------------|
---------------------------------------------------------|
----------------------------------------^--3-------------|
---------------------------------------3-4---4-3-0-1-4---|
-005-3-1-0---0-110-0---0-110-0---0-110-------------------|
 *** * *   | * ***   | * ***   | * ***  
 


-------------------------------------------------------|
-------------------------------------------------------|
-------------------------------------------------------|
-------------------------------------------------------|
----------------------------------------^--3-----------|
-004-3-1-0---0-110-0---0-110-0---0-110-3-4---4-3-0-1-4-|
 *** * *   | * ***   | * ***   | * ***


---------------------------------------------------------|
---------------------------------------------------------|
---------------------------------------------------------|
----------------------------------------^--3-------------|
---------------------------------------3-4---4-3-0-1-4---|
-004-3-1-0---0-110-0---0-110-0---0-110-------------------|
 *** * *   | * ***   | * ***   | * ***  
 


1:26


R           L          B
------------------------------------------------------------------|
------------------------------------------------------------------|
------------------------------------------------------------------|
------------------------------------------------------------------|
---------------------------------------------------^--3-----------|
-004-3-1-0---0-110-0---0-110-0---0-110-0----0-110-3-4---4-3-0-1-4-|
 *** * *   | * ***   | * ***   | * ***   |  * *** 



R           L          B
------------------------------------------------------------------|
------------------------------------------------------------------|
------------------------------------------------------------------|
---------------------------------------------------^--3-----------|
--------------------------------------------------3-4---4-3-0-1-4-|
-004-3-1-0---0-110-0---0-110-0---0-110-0----0-110-----------------|
 *** * *   | * ***   | * ***   | * ***   |  * *** 





1:37

----------------------------------------------------------------|
----------------------------------------------------------------|
----------------------------------------------------------------|
-8-----7--------------------------------------------------------|
-8-----7-------------11----------11---------11---------11-------|
-8-----7-7-7-7-7-7-7-----12-0-12----12-0-12----12-0-12----12-0--|


--------------------------------------------------------------|
--------------------------------------------------------------|
---------------------------_----------------------------------|
-8--------------7---------/ \--6------------------------------|
-8--------------7--------7-8-7-6------------------------------|
-8--8-8-8-888-8-7--7-7-7-7/8\7-6-6-6-6-776-6-6-776-6-6-776-6--|
    * * * *** *    * * *         * * * *** * * *** * * *** *


-----------------------------------------------------------------|
-----------------------------------------------------------------|
-----------------------------------------------------------------|
-8-----7---------------------------------------------------------|
-8-----7-------------11----------11---------11---------11--------|
-8-----7-7-7-7-7-7-7-----12-0-12----12-0-12----12-0-12----12-/ \-|




1:53



L
-----------------------------------------------------------------|
-----------------------------------6-6-8-8-----------------------|
-----------------------------------7-7-9-9---10-10-9-9-7-7-5-----|
-----------------------------------X-X-X-X----X--X-X-X-X-X-X-----|
-----------------------------------5-5/7-7----8--8\7-7\5-5\3-0---|
-3-3-3-3-3-3-3-2-2-2-2-2-2-5-3-0-0----------0--------------------|
                                            *
R
------------------------------------------------------------------|
------------------------------------------------------------------|
-----------------------------------7-7-9-9------------------------|
-----------------------------------X-X-X-X------------------------|
-----------------------------------5-5/7-7-----8--8-7-7-5-5-3-3---|
-3-3-3-3-3-3-3-2-2-2-2-2-2-5-3-0-0----------0-10-10\9-9\7-7\5-5---|
                                            *


L
-------------------------------------------------------------------|
------------------------------------6-6-8-8----11-111010-8-8-6-6---|
------------------------------------7-7-9-9----12-121010-9-9-7-7---|
------------------------------------X-X-X-X-----X--X-X-X-X-X-X-X---|
------------------------------------5-5/7-7----10-10\8-8\7-7\5-5---|
-3--3-3-3-3-3-3-2--2-2-2-5-3-2-0-0-----------0---------------------|
                                             *
R
----------------------------------------------------------------|
----------------------------------------------------------------|
------------------------------------7-7-9-9---------------------|
------------------------------------X-X-X-X---------------------|
------------------------------------5-5/7-7---------------------|
-3--3-3-3-3-3-3-2--2-2-2-5-3-2-0-0-----------0-5-5\3-3\2-2\0-0--|
                                             *







L
-----------------------------------------------------------------|
-----------------------------------6-6-8-8-----------------------|
-----------------------------------7-7-9-9---10-10-9-9-7-7-5-----|
-----------------------------------X-X-X-X----X--X-X-X-X-X-X-----|
-----------------------------------5-5/7-7----8--8\7-7\5-5\3-0---|
-3-3-3-3-3-3-3-2-2-2-2-2-2-5-3-0-0----------0--------------------|
                                            *
R
------------------------------------------------------------------|
------------------------------------------------------------------|
-----------------------------------7-7-9-9------------------------|
-----------------------------------X-X-X-X------------------------|
-----------------------------------5-5/7-7-----8--8-7-7-5-5-3-3---|
-3-3-3-3-3-3-3-2-2-2-2-2-2-5-3-0-0----------0-10-10\9-9\7-7\5-5---|
                                            *


L
-------------------------------------------------------------------|
------------------------------------6-6-8-8----11-111010-8-8-6-6---|
------------------------------------7-7-9-9----12-121010-9-9-7-7---|
------------------------------------X-X-X-X-----X--X-X-X-X-X-X-X---|
------------------------------------5-5/7-7----10-10\8-8\7-7\5-5---|
-3--3-3-3-3-3-3-2--2-2-2-5-3-2-0-0-----------0---------------------|
                                             *
R
----------------------------------------------------------------|
----------------------------------------------------------------|
------------------------------------7-7-9-9---------------------|
------------------------------------X-X-X-X---------------------|
------------------------------------5-5/7-7---------------------|
-3--3-3-3-3-3-3-2--2-2-2-5-3-2-0-0-----------0-5-5\3-3\2-2\0-0-0|
                                             *




2:14

B
--------------------------------------------------------------------------|
------------------12---------------------------------12--------14---------|
---------------15----15---------------------------15----15--17----17------|
--------------------------------------------------------------------------|
--------------------------------------------------------------------------|
-0--0-0-000-0-----------0-0-000-0-0-0--0-0-000-0---------------------0-0--|
    * * *** *           * * *** * *    * * *** *          |          * *


L
-------------------------------------------------------------------------------|
------------------12---------------------------------15--------17--------15----|
---------------15----15---------------------------18----18--20----20--18----18-|
-------------------------------------------------------------------------------|
-------------------------------------------------------------------------------|
-0--0-0-000-0-----------0-0-000-0-0-0--0-0-000-0-------------------------------|
    * * *** *           * * *** * *    * * *** *          |          |
R
-------------------------------------------------------------------------------|
------------------12---------------------------------12--------14--------12----|
---------------15----15---------------------------15----15--17----17--15----15-|
-------------------------------------------------------------------------------|
-------------------------------------------------------------------------------|
-0--0-0-000-0-----------0-0-000-0-0-0--0-0-000-0-------------------------------|
    * * *** *           * * *** * *    * * *** *          |          | 


B
--------------------------------------------------------------------------|
------------------12---------------------------------12--------14---------|
---------------15----15---------------------------15----15--17----17------|
--------------------------------------------------------------------------|
--------------------------------------------------------------------------|
----0-0-000-0-----------0-0-000-0-0-0--0-0-000-0---------------------0-0--|
    * * *** *           * * *** * *    * * *** *          |          * *


L
-------------------------------------------------------------------------------|
------------------12---------------------------------15--------17--------15----|
---------------15----15---------------------------18----18--20----20--18----18-|
-------------------------------------------------------------------------------|
-------------------------------------------------------------------------------|
-0--0-0-000-0-----------0-0-000-0-0-0--0-0-000-0-------------------------------|
    * * *** *           * * *** * *    * * *** *          |          |
R
-------------------------------------------------------------------------------|
------------------12---------------------------------12--------14--------12----|
---------------15----15---------------------------15----15--17----17--15----15-|
-------------------------------------------------------------------------------|
-------------------------------------------------------------------------------|
-0--0-0-000-0-----------0-0-000-0-0-0--0-0-000-0-------------------------------|
    * * *** *           * * *** * *    * * *** *          |          | 

L
---------------------------------------------|
----17--------15-----------------------------|
-20----20--18----18-------------4---2--------|
--------------------------------2---0--------|
--------------------------------2---0--------|
--------------------0-0-000-0-0-2---0-----\--|
          |         * * *** * * 
R
---------------------------------------------|
----14--------12-----------------------------|
-17----17--15----15--------------------------|
--------------------------------2---0--------|
--------------------------------2---0--------|
--------------------0-0-000-0-0-2---0-----\--|
          |         * * *** * *





2:40

--------------------------------------------------------|
--------------------------------------------------------|
--------------------------------------------------------|
--^---^------------------^---^---^--------------^-------|
-0-1-0-1-0----0-1-2-3/4-3-1-0-1-0-1-0----4\3-1-3-1-0-1--|
-0-1-0-1-0----0-1-2-3/4-3-1-0-1-0-1-0----4\3-1-3-1-0-1--|
           |                          |

------------------------------------------------------|
------------------------------------------------------|
------------------------------------------------------|
--^---^----------------^---^---^--------------^-------|
-0-1-0-1-0----0-1-3/4-3-1-0-1-0-1-0----4\3-1-3-1-0-1--|
-0-1-0-1-0----0-1-3/4-3-1-0-1-0-1-0----4\3-1-3-1-0-1--|
           |                        |



------------------------------------------------------|
------------------------------------------------------|
---------------_-----___------------------------------|
--^---^-------/ \---/   \---^---^-------------^-------|
-4-5-4-5-4---5-4-5-7-8-7-5-4-5-4-5-4---8\7-5-7-5-4-5--|
-4-5-4-5-4---5\4/5-7/8\7-5-4-5-4-5-4---8\7-5-7-5-4-5--|
           |                         |

------------------------------------------------------|
------------------------------------------------------|
---------------_-----___------------------------------|
--^---^-------/ \---/   \---^---^-------------^-------|
-4-5-4-5-4---5-4-5-7-8-7-5-4-5-4-5-4---8\7-5-7-5-4-5--|
-4-5-4-5-4---5\4/5-7/8\7-5-4-5-4-5-4---8\7-5-7-5-4-5--|
           |                         |



3:01


------------------------------------------------------------------|
------------------------------------------------------------------|
------------------------------------------------------------------|
--^---^-----------------------^---^---^-------------------^-------|
-0-1-0-1-0---------0-1-2-3/4-3-1-0-1-0-1-0---------4\3-1-3-1-0-1--|
-0-1-0-1-0-0-0-0-0-0-1-2-3/4-3-1-0-1-0-1-0-0-0-0-0-4\3-1-3-1-0-1--|
           * * * *                         * * * *                           


------------------------------------------------------------------|
------------------------------------------------------------------|
------------------------------------------------------------------|
--^---^-----------------------^---^---^-------------------^-------|
-0-1-0-1-0---------0-1-2-3/4-3-1-0-1-0-1-0---------4\3-1-3-1-0-1--|
-0-1-0-1-0-0-0-0-0-0-1-2-3/4-3-1-0-1-0-1-0-0-0-0-0-4\3-1-3-1-0-1--|
           * * * *                         * * * *               


---------------------------------------------------|
---------------------------------------------------|
---------------------------------------------------|
---------------------------------------------------|
-1--0--5--4--8--7--4--5---1--0--5--4--10--9--4--5--|
-1--0--5--4--8--7--4--5---1--0--5--4--10--9--4--5--|



---------------------------------------------------|
---------------------------------------------------|
---------------------------------------------------|
---------------------------------------------------|
----------------------------------1-0-5-4-8-7-4-5--|
-11110000555544448888777744445555-1-0-5-4-8-7-4-5--|
                                  * * * * * * * *

L
-------------------|
-------------------|
---_-----_____-----|
--/ \ --/     \----|
-5-4-0-4-5-7/8\7---|
-------------------|

R
-------------------|
-------------------|
-------------------|
---_-----_____-----|
--/ \ --/     \----|
-5-4-0-4-5-7/8\7---|





3:23

L
-------------------------------------------------------|
-------------------------------------------------------|
10----9------------------------------------------------|
-X----X------------------------------------------------|
-8----7---/--11---------11---------11---------11-------|
----------------12-0-12----12-0-12----12-0-12----12-0--|

R
-------------------------------------------------------|
-------------------------------------------------------|
-------------------------------------------------------|
-------------------------------------------------------|
-8----7-----11---------11---------11---------11--------|
-8----7--------12-0-12----12-0-12----12-0-12----12-0---|


L
--------_____--------------------------------------|
-------/     \-------------------------------------|
-7----6-----7-6-5-------------------------P--------|
-X----X-----X-X-X--------------------------S-------|
-5----4----/5\4-3-3-3-3-4-3-3-3-4-3-3-3------------|
---------------------------------------------------|
                  * * *   * * *   * * *
R
--------------------------------------------------------------|
--------------------------------------------------------------|
--------------------------------------------------------------|
---------------------------^----------------------------------|
-8--------------7--------7-8-7-6------------------------------|
-8--8-8-8-8-8-8-7--7-7-7-7-8-7-6-6-6-6-7-6-6-6-7-6-6-6-7-6-5--|
    * * * * * *    * * *         * * *   * * *   * * *  



L
--------------------------------------------------------------|
--------------------------------------------------------------|
10----9-------------------------------------------------------|
-X----X-------------------------------------------------------|
-8----7---/---------11---------11---------11---------11-------|
-----------------------12-0-12----12-0-12----12-0-12----12-0--|

R
---------------------------------------------------------------|
---------------------------------------------------------------|
---------------------------------------------------------------|
---------------------------------------------------------------|
-8----7-------------11---------11---------11---------11--------|
-8----7-7-7-7-7-7-7----12-0-12----12-0-12----12-0-12----12-0---|



--------------------------------------------------------------|
--------------------------------------------------------------|
--------------------------------------------------------------|
---------------------------^----------------------------------|
-8--------------7--------7-8-7-6------------------------------|
-8--8-8-8-888-8-7--7-7-7-7-8-7-6-6-6-6-776-6-6-776-6-6-776-6--|
    * * * *** *    * * *         * * * *** * * *** * * *** * 




---------------------------------------------------------------|
---------------------------------------------------------------|
---------------------------------------------------------------|
-8----7--------------------------------------------------------|
-8----7-------------11---------11---------11---------11--------|
-8----7-7-7-7-7-7-7----12-0-12----12-0-12----12-0-12----12-/-\-|








3:48

L
-----------------------------------------------------------------|
-----------------------------------6-6-8-8-----------------------|
-----------------------------------7-7-9-9---10-10-9-9-7-7-5-----|
-----------------------------------X-X-X-X----X--X-X-X-X-X-X-----|
-----------------------------------5-5/7-7----8--8\7-7\5-5\3-0---|
-3-3-3-3-3-3-3-2-2-2-2-2-2-5-3-0-0----------0--------------------|
                                            *
R
------------------------------------------------------------------|
------------------------------------------------------------------|
-----------------------------------7-7-9-9------------------------|
-----------------------------------X-X-X-X------------------------|
-----------------------------------5-5/7-7-----8--8-7-7-5-5-3-3---|
-3-3-3-3-3-3-3-2-2-2-2-2-2-5-3-0-0----------0-10-10\9-9\7-7\5-5---|
                                            *


L
-------------------------------------------------------------------|
------------------------------------6-6-8-8-8--11-111010-8-8-6-6-8-|
------------------------------------7-7-9-9-9--12-121010-9-9-7-7-7-|
------------------------------------X-X-X-X-X---X--X-X-X-X-X-X-X-X-|
------------------------------------5-5/7-7-7--10-10\8-8\7-7\5-5-5-|
-3--3-3-3-3-3-3-2--2-2-2-5-3-2-0-0-----------0---------------------|
                                             *
R
----------------------------------------------------------------|
----------------------------------------------------------------|
------------------------------------7-7-9-9-9-------------------|
------------------------------------X-X-X-X-X-------------------|
------------------------------------5-5/7-7-7-------------------|
-3--3-3-3-3-3-3-2--2-2-2-5-3-2-0-0-----------0-5-5\3-3\2-2\0-0-0|
                                             *





L
-----------------------------------------------------------------|
-----------------------------------6-6-8-8-8---------------------|
-----------------------------------7-7-9-9-9-10-10-9-9-7-7-5-----|
-----------------------------------X-X-X-X-X--X--X-X-X-X-X-X-----|
-----------------------------------5-5/7-7-7--8--8\7-7\5-5\3-0---|
-3-3-3-3-3-3-3-2-2-2-2-2-2-5-3-0-0----------0--------------------|
                                            *
R
------------------------------------------------------------------|
------------------------------------------------------------------|
-----------------------------------7-7-9-9-9----------------------|
-----------------------------------X-X-X-X-X----------------------|
-----------------------------------5-5/7-7-7---8--8-7-7-5-5-3-3---|
-3-3-3-3-3-3-3-2-2-2-2-2-2-5-3-0-0----------0-10-10\9-9\7-7\5-5---|
                                            *


L
-------------------------------------------------------------------|
------------------------------------6-6-8-8-8--11-111010-8-8-6-6-6-|
------------------------------------7-7-9-9-9--12-121010-9-9-7-7-7-|
------------------------------------X-X-X-X-X---X--X-X-X-X-X-X-X-X-|
------------------------------------5-5/7-7-7--10-10\8-8\7-7\5-5-5-|
-3--3-3-3-3-3-3-2--2-2-2-5-3-2-0-0-----------0---------------------|
                                             *
R
----------------------------------------------------------------|
----------------------------------------------------------------|
------------------------------------7-7-9-9-9-------------------|
------------------------------------X-X-X-X-X-------------------|
------------------------------------5-5/7-7-7-------------------|
-3--3-3-3-3-3-3-2--2-2-2-5-3-2-0-0-----------0-5-5\3-3\2-2\0-0-0|
                                             *



4:10



L
-----------------------------------------------------------------|
-----------------------------------6-6-8-8-----------------------|
-----------------------------------7-7-9-9-9-10-10-9-9-7-7-5-----|
-----------------------------------X-X-X-X-X--X--X-X-X-X-X-X-----|
-----------------------------------5-5/7-7-7--8--8\7-7\5-5\3-0---|
-3-3-3-3-3-3-3-2-2-2-2-2-2-5-3-0-0----------0--------------------|
                                            *
R
------------------------------------------------------------------|
------------------------------------------------------------------|
-----------------------------------7-7-9-9-9----------------------|
-----------------------------------X-X-X-X-X----------------------|
-----------------------------------5-5/7-7-7---8--8-7-7-5-5-3-3---|
-3-3-3-3-3-3-3-2-2-2-2-2-2-5-3-0-0----------0-10-10\9-9\7-7\5-5---|
                                            *


L
-------------------------------------------------------------------|
------------------------------------6-6-8-8-8--11-111010-8-8-6-6-6-|
------------------------------------7-7-9-9-9--12-121010-9-9-7-7-7-|
------------------------------------X-X-X-X-X---X--X-X-X-X-X-X-X-X-|
------------------------------------5-5/7-7-7--10-10\8-8\7-7\5-5-5-|
-3--3-3-3-3-3-3-2--2-2-2-5-3-2-0-0-----------0---------------------|
                                             *
R
----------------------------------------------------------------|
----------------------------------------------------------------|
------------------------------------7-7-9-9-9-------------------|
------------------------------------X-X-X-X-X-------------------|
------------------------------------5-5/7-7-7-------------------|
-3--3-3-3-3-3-3-2--2-2-2-5-3-2-0-0-----------0-5-5\3-3\2-2\0-0-0|
                                             *




4:21 

----------------------------------------------------------------------------|
----------------------------------------------------------------------------|
----------------------------------------------------------------------------|
----------------------------------------------------------------------------|
-0-4-3-1-0------------1---0-----------1---0-----------1----^--3-------------|
-0-4-3-1-0--0-0-0-0-0-1-0-0-0-0-0-0-0-1-0-0-0-0-0-0-0-1-0-3-4---4-3-0-1-4---|
 * * * *    * * * * *   *   * * * * *   *   * * * * *   *


----------------------------------------------------------------------------|
----------------------------------------------------------------------------|
----------------------------------------------------------------------------|
-----------------------------------------------------------^--3-------------|
-0-4-3-1-0------------1---0-----------1---0-----------1---3-4---4-3-0-1-4---|
-0-4-3-1-0--0-0-0-0-0-1-0-0-0-0-0-0-0-1-0-0-0-0-0-0-0-1-0-------------------|
 * * * *    * * * * *   *   * * * * *   *   * * * * *   *



----------------------------------------------------------------------------|
----------------------------------------------------------------------------|
----------------------------------------------------------------------------|
----------------------------------------------------------------------------|
-0-4-3-1-0------------1---0-----------1---0-----------1----^--3-------------|
-0-4-3-1-0--0-0-0-0-0-1-0-0-0-0-0-0-0-1-0-0-0-0-0-0-0-1-0-3-4---4-3-0-1-4---|
 * * * *    * * * * *   *   * * * * *   *   * * * * *   *


----------------------------------------------------------------------------|
----------------------------------------------------------------------------|
----------------------------------------------------------------------------|
-----------------------------------------------------------^--3-------------|
-0-4-3-1-0------------1---0-----------1---0-----------1---3-4---4-3-0-1-4---|
-0-4-3-1-0--0-0-0-0-0-1-0-0-0-0-0-0-0-1-0-0-0-0-0-0-0-1-0-------------------|
 * * * *    * * * * *   *   * * * * *   *   * * * * *   *









\\\\\\\\\\\\\\\\\\\\\\\\\\\\\\\\\\\\\\\\\\\\\\\\\\\\\\\\\\\\\\\\\\\\\\\\
\\\\\\\\\\\\\\\\\\\\\\\\\\\\\\\\\\\\\\\\\\\\\\\\\\\\\\\\\\\\\\\\\\\\\\\\
\\\\\\\\\\\\\\\\\\\\\\\\\\\\\\\\\\\\\\\\\\\\\\\\\\\\\\\\\\\\\\\\\\\\\\\\
\\\\\\\\\\\\\\\\\\\\\\\\\\\\\\\\\\\\\\\\\\\\\\\\\\\\\\\\\\\\\\\\\\\\













SLIPKNOT

LECH


B-F#-B-E-G#-C#



TABBED BY andherembrace



---------------------------------------------------------------------------------------|
---------------------------------------------------------------------------------------|
---------------------------------------------------------------------------------------|
---------------------------------------------------------------------------------------|
--1--4---^--------^--------^--------^--------^------^------^--------^------------------|
\-1--4--1-0-0000-1-0-0000-1-0-0000-1-0-0000-1-0-00-1-0-00-1-0-0000-1-0-0000-1-6-5-1-4~~|
            ****     ****     ****     ****     **     **     ****     **** * * * *

-----------------------------------------------------------------------------------------|
-----------------------------------------------------------------------------------------|
-----------------------------------------------------------------------------------------|
-----------------------------------------------------------------------------------------|
--1--4---^--------^--------^--------^--------^------^------^--------^------------------0-|
--1--4--1-0-0000-1-0-0000-1-0-0000-1-0-0000-1-0-00-1-0-00-1-0-0000-1-0-0000-1-6-5-1-4~~0-|
            ****     ****     ****     ****     **     **     ****     **** * * * *




0:17


------------------------------------------------------------------|
------------------------------------------------------------------|
------------------------------------------------------------------|
------------------------------------------------------------------|
---)----) (---------)----) (--------)----) (---------)----) (-----|
-12---12~---------12---12---------12---12----------12---12--------|

---------------------------------------------------------------------|
-----------------------------------------------------------------H---|
----------------------------------------------------------------2.75-|
---------------------------------------------------------------------|
---)----) (---------)----) (--------)----) (---------)----) (--------|
-12---12~---------12---12---------12---12----------12---12-----------|






0:42


---------------------------------------------------------------------------------------|
---------------------------------------------------------------------------------------|
---------------------------------------------------------------------------------------|
---------------------------------------------------------------------------------------|
--1--4---^--------^--------^--------^--------^------^------^--------^------------------|
--1--4--1-0-0000-1-0-0000-1-0-0000-1-0-0000-1-0-00-1-0-00-1-0-0000-1-0-0000-1-6-5-1-4~~|
            ****     ****     ****     ****     **     **     ****     **** * * * *

-----------------------------------------------------------------------------------------|
-----------------------------------------------------------------------------------------|
-----------------------------------------------------------------------------------------|
-----------------------------------------------------------------------------------------|
--1--4---^--------^--------^--------^--------^------^------^--------^--------------------|
--1--4--1-0-0000-1-0-0000-1-0-0000-1-0-0000-1-0-00-1-0-00-1-0-0000-1-0-0000-1-6-5-1-4~~--|
            ****     ****     ****     ****     **     **     ****     **** * * * *





0:55

L
-----------------------------------------------------------|
-----------------------------------------------------------|
-----------------------------------------------------------|
-----------5-5-5-5-0-0-6--6--------------6-6-6-6-0-0-5--5--|
-2-----)-(---------------------2-----)-(-------------------|
-2--X-2----------------------0-2--X-2----------------------|
    *                        *
R
-----------------------------------------------------------|
-----------------------------------------------------------|
-----------------------------------------------------------|
-----------------------------------------------------------|
-2-----)-(-3-3-3-3-0-0-4~-4----2-----)-(-4-4-4-4-0-0-3~-3--|
-2--X-2----------------------0-2--X-2----------------------|
    *                        *


L
-------------------------------------------------------|
-------------------------------------------------------|
-------------------------------------------------------|
-----------5-5-5-5-0-0-6--6----------------------------|
-2-----)-(---------------------2-----)-(-6-4-5---------|
-2--X-2----------------------0-2--X-2----6-4-5--0/-\---|
    *                        *
R
-------------------------------------------------------|
-------------------------------------------------------|
-------------------------------------------------------|
-------------------------------------------------------|
-2-----)-(-3-3-3-3-0-0-4~-4----2-----)-(-6-4-5---------|
-2--X-2----------------------0-2--X-2----6-4-5--0/-\---|







1:08



---------------------------------------------------------------------------------------|
---------------------------------------------------------------------------------------|
---------------------------------------------------------------------------------------|
---------------------------------------------------------------------------------------|
--1--4---^--------^--------^--------^--------^------^------^--------^------------------|
\-1--4--1-0-0000-1-0-0000-1-0-0000-1-0-0000-1-0-00-1-0-00-1-0-0000-1-0-0000-1-6-5-1-4~~|
            ****     ****     ****     ****     **     **     ****     **** * * * *

-----------------------------------------------------------------------------------------|
-----------------------------------------------------------------------------------------|
-----------------------------------------------------------------------------------------|
-----------------------------------------------------------------------------------------|
--1--4---^--------^--------^--------^--------^------^------^--------^------------------0-|
--1--4--1-0-0000-1-0-0000-1-0-0000-1-0-0000-1-0-00-1-0-00-1-0-0000-1-0-0000-1-6-5-1-4~~0-|
            ****     ****     ****     ****     **     **     ****     **** * * * *




1:21



------------------------------------------------------------------|
------------------------------------------------------------------|
------------------------------------------------------------------|
------------------------------------------------------------------|
---)----) (---------)----) (--------)----) (---------)----) (-----|
-12---12~---------12---12---------12---12----------12---12--------|

-------------------------------------|
---------------------------------H---|
--------------------------------2.75-|
-------------------------------------|
----)----) (---------)----) (--------|
--12---12----------12---12-----------|





1:40


-----------------------------------------------------------------------------------------|
-----------------------------------------------------------------------------------------|
-----------------------------------------------------------------------------------------|
-----------------------------------------------------------------------------------------|
--1--4---^--------^--------^--------^--------^------^------^--------^--------------------|
--1--4--1-0-0000-1-0-0000-1-0-0000-1-0-0000-1-0-00-1-0-00-1-0-0000-1-0-0000-1-6-5-1-4~~--|
            ****     ****     ****     ****     **     **     ****     **** * * * *


1:47



L
------------------------------------------------------------|
------------------------------------------------------------|
------------------------------------------------------------|
-----------5-5-5-5-0-0-6--6--------------6-6-6-6-0-0-5--5---|
-2-----)-(---------------------2-----)-(--------------------|
-2--X-2----------------------0-2--X-2---------------------0-|
    *                        *                            *
R
------------------------------------------------------------|
------------------------------------------------------------|
------------------------------------------------------------|
------------------------------------------------------------|
-2-----)-(-3-3-3-3-0-0-4~-4----2-----)-(-4-4-4-4-0-0-3~-3---|
-2--X-2----------------------0-2--X-2---------------------0-|
    *                        *                            *


L
-------------------------------------------------------|
-------------------------------------------------------|
-------------------------------------------------------|
-----------5-5-5-5-0-0-6--6----------------------------|
-2-----)-(---------------------2-----)-(-6-4-5---------|
-2--X-2----------------------0-2--X-2----6-4-5--0/-\---|
    *                        *
R
-------------------------------------------------------|
-------------------------------------------------------|
-------------------------------------------------------|
-------------------------------------------------------|
-2-----)-(-3-3-3-3-0-0-4~-4----2-----)-(-6-4-5---------|
-2--X-2----------------------0-2--X-2----6-4-5---/-\---|





2:00


---------------------------------------------------------------------------------------|
---------------------------------------------------------------------------------------|
---------------------------------------------------------------------------------------|
---------------------------------------------------------------------------------------|
--1--4---^--------^--------^--------^--------^------^------^--------^------------------|
\-1--4--1-0-0000-1-0-0000-1-0-0000-1-0-0000-1-0-00-1-0-00-1-0-0000-1-0-0000-1-6-5-1-4~~|
            ****     ****     ****     ****     **     **     ****     **** * * * *

-----------------------------------------------------------------------------------------|
-----------------------------------------------------------------------------------------|
-----------------------------------------------------------------------------------------|
-----------------------------------------------------------------------------------------|
--1--4---^--------^--------^--------^--------^------^------^--------^------------------0-|
--1--4--1-0-0000-1-0-0000-1-0-0000-1-0-0000-1-0-00-1-0-00-1-0-0000-1-0-0000-1-6-5-1-4~~0-|
            ****     ****     ****     ****     **     **     ****     **** * * * *








2:20

                                        *                                                *
------------------------------------------------------------------------------------------------|
------------------------------------------------------------------------------------------------|
------------------------------------------------------------------------------------------------|
------------------------------------------------------------------------------------------------|
-1-1-1-4-4-4-3-\(0)------------------0-7-6-5-2----1-1-1-4-4-4-3-\(0)------------------0-7-6-5-2-|
-1-1-1-4-4-4-3-\(0)-----0-6-0-8-7----0-7-6-5-2----1-1-1-4-4-4-3-\(0)-----0-6-0-8-7----0-7-6-5-2-|
                                     * * * *                                          * * * *

------------------------------------------------------------------------------------------------|
------------------------------------------------------------------------------------------------|
------------------------------------------------------------------------------------------------|
------------------------------------------------------------------------------------------------|
-1-1-1-4-4-4-3-\(0)------------------0-7-6-5-2----1-1-1-4-4-4-3-\(0)------------------0-7-6-5-2-|
-1-1-1-4-4-4-3-\(0)-----0-6-0-8-7----0-7-6-5-2----1-1-1-4-4-4-3-\(0)-----0-6-0-8-7----0-7-6-5-2-|
                                     * * * *                                          * * * *






2:45

------------------------------------------------------------------|
------------------------------------------------------------------|
------------------------------------------------------------------|
------------------------------------------------------------------|
-1-1-1-4-4-4-3-3-1-1-1-4-4-4-3-3-3---------------3-3-3-4-4-4-2-2--|
-1-1-1-4-4-4-3-3-1-1-1-4-4-4-3-3-3-0-6-0-8-7-6-7-3-3-3-4-4-4-2-2--|
                                                 * * * * * * * *       

L
------------------------------------------------------------------|
------------------------------------------------------------------|
-3-3-3-6-6-6-5-5-3-3-3-6-6-6-5-5-5--------------------------------|
-X-X-X-X-X-X-X-X-X-X-X-X-X-X-X-X-X--------------------------------|
-1-1-1-4-4-4-3-3-1-1-1-4-4-4-3-3-3---------------3-3-3-4-4-4-2-2--|
-----------------------------------0-6-0-8-7-6-7-3-3-3-4-4-4-2-2--|
                                                 * * * * * * * *  
R
------------------------------------------------------------------|
------------------------------------------------------------------|
------------------------------------------------------------------|
------------------------------------------------------------------|
-1-1-1-4-4-4-3-3-1-1-1-4-4-4-3-3-3---------------3-3-3-4-4-4-2-2--|
-1-1-1-4-4-4-3-3-1-1-1-4-4-4-3-3-3-0-6-0-8-7-6-7-3-3-3-4-4-4-2-2--|
                                                 * * * * * * * *  






2:58


--------------------------------------------------------------|
--------------------------------------------------------------|
--------------------------------------------------------------|
--------------------------------------------------------------|
--)(-------------)(-------------)(-------------)(-------------|
-1---0-1--0-1-0-1---0-1-000000-1---0-1--0-1-0-1---0-1-0-00-0--|
          * * *         ******          * * *         * ** *

------------------------------------------------|
------------------------------------------------|
------------------------------------------------|
------------------------------------------------|
--)(-------------)(-------------)(------------1-|
-1---0-1--0-1-0-1---0-1-000000-1---0-1--0-1-0-1-|
          * * *         ******          * * *    





3:11


--------------------------------------------------------------|
--------------------------------------------------------------|
--------------------------------------------------------------|
--------------------------------------------------------------|
--)(-------------)(-------------)(-------------)(-------------|
-1---0-1--0-1-0-1---0-1-000000-1---0-1--0-1-0-1---0-1-0-00-0--|
          * * *         ******          * * *         * ** *

--------------------------------------------------------------|
--------------------------------------------------------------|
--------------------------------------------------------------|
--------------------------------------------------------------|
--)(-------------)(-------------)(------0-1-4-3-0-4-5-6-5-6-7-|
-1---0-1--0-1-0-1---0-1-000000-1---0-1--0-1-4-3-0-4-5-6-5-6-7-|
          * * *         ******          * * * * * * * * * * *





3:24


-------------------------------------------------------------------------------------------|
-------------------------------------------------------------------------------------------|
------------------9--------9--------9-----------------9--------9--------9------------------|
------------------9--------9--------9-----------------9--------9--------9------------------|
------------------7--------7--------7-----------------7--------7--------7------------------|
-7777777777777777-7--7--7--7--7--7-----7--7--66666666-7--7--7--7--7--7--7--7--7--66666666--|
 ****************    *  *     *  *     *  *  ********    *  *     *  *     *  *  ********


----------------------------------------------------------------------------|
----------------------------------------------------------------------------|
-9--------9--------9-----------------9--------9--------9--------------------|
-9--------9--------9-----------------9--------9--------9--------------------|
-7--------7--------7-----------------7--------7--------7--------------------|
-7--7--7--7--7--7--7--7--7--66666666-7--7--7--7--7--7--7--7--7--66666666----|
    *  *     *  *     *  *  ********    *  *     *  *     *  *  ********






3:38



1
----------------------------------------------------------------|
----------------------------------------------------------------|
----------------------------------------------------------------|
----------------------------------------------------------------|
-4-5--------------6--7-8-7-6---4-5--------------6--7-8-7-6------|
-4-5-4-/-0-000000-6--7-8-7-6-0-4-5-4-/-0-000000-6--7-8-7-6-0----|
         * ******            *         * ******            *
 
2
----------------------------------------------------------------|
///-GRAD BENDS-N RELEASES-----///-GRAD BENDS-N RELEASES---------|
-7-----------------------------7--------------------------------|
----------------------------------------------------------------|
----------------------------------------------------------------|
----------------------------------------------------------------|


1
----------------------------------------------------------------|
----------------------------------------------------------------|
----------------------------------------------------------------|
----------------------------------------------------------------|
-4-5--------------6--7-8-7-6---4-5--------------6--7-8-7-6------|
-4-5-4-/-0-000000-6--7-8-7-6-0-4-5-4-/-0-000000-6--7-8-7-6-0----|
         * ******            *         * ******            *

2
----------------------------------------------------------------|
///-GRAD BENDS-N RELEASES-----///-GRAD BENDS--------------------|
-10---------------------------12--------------------------------|
----------------------------------------------------------------|
----------------------------------------------------------------|
----------------------------------------------------------------|




3:52



---------------------------------------------------------------------------------|
---------------------------------------------------------------------------------|
------------------5-----------5----------------------------5-----------5---------|
------------------5-----------5----------------------------5-----------5---------|
------------------3-----------3----------------------------3-----------3--------3|
-4444444444444444-3--3--3--3--3--3--3--3--4444444444444444-3--3--3--3--3--3--3--3|
 ****************    *  *  *     *  *  *  ****************    *  *  *     *  *  


-----------------------------------------------------------|
-----------------------------------------------------------|
------------------5-----------5----------------------------|
------------------5-----------5----------------------------|
------------------3-----------3--------3-------------------|
-4444444444444444-3--3--3--3--3--3--3--3--4444444444444444-|
 ****************    *  *  *     *  *     ****************   


-------------------------------------------------------------------------|
-------------------------------------------------------------------------|
-5--------5--------5--------5--------5--------5--------------------------|
-5--------5--------5--------5--------5--------5--------5--------5--------|
-3--------3--------3--------3--------3--------3--------3--------3--------|
-3--3--3--3--3--3--3--3--3--3--3--3--3--3--3--3--3--3--3--3--3--3--3--3--|
    *  *     *  *     *  *     *  *     *  *     *  *     *  *     *  *



1
----------------------------------------------------------------|
----------------------------------------------------------------|
----------------------------------------------------------------|
----------------------------------------------------------------|
-4-5--------------6--7-8-7-6---4-5--------------6--7-8-7-6------|
-4-5-4-/-0-000000-6--7-8-7-6-0-4-5-4-/-0-000000-6--7-8-7-6-0----|
         * ******            *         * ******            *

2
----------------------------------------------------------------|
///-GRAD BENDS-N RELEASES-----///-GRAD BENDS-N RELEASES---------|
11-----------------------------11-------------------------------|
----------------------------------------------------------------|
----------------------------------------------------------------|
----------------------------------------------------------------|



1
----------------------------------------------------------------|
----------------------------------------------------------------|
----------------------------------------------------------------|
----------------------------------------------------------------|
-4-5--------------6--7-8-7-6---4-5--------------6--7-8-7-6------|
-4-5-4-/-0-000000-6--7-8-7-6-0-4-5-4-/-0-000000-6--7-8-7-6-0----|
         * ******            *         * ******            *

2
----------------------------------------------------------------|
///-GRAD BENDS-N RELEASES-----///-GRAD BENDS--------------------|
14----------------------------16--------------------------------|
----------------------------------------------------------------|
----------------------------------------------------------------|
----------------------------------------------------------------|




------------------------------------------------------------|
------------------------------------------------------------|
------------------------------------------------------------|
------------------------------------------------------------|
-1--4--1-0-1-4-1-0-1-0-1-4-1-0-1--4--1-0-1-4-1-0------------|
-1--4--1-0-1-4-1-0-1-0-1-4-1-0-1--4--1-0-1-4-1-0-1-6-5-1-4~-|
       * * * * * * * * * * * *       * * * * * * 

------------------------------------------------------------|
------------------------------------------------------------|
------------------------------------------------------------|
------------------------------------------------------------|
-1--4--1-0-1-4-1-0-1-0-1-4-1-0-1--4--1-0-1-4-1-0------------|
-1--4--1-0-1-4-1-0-1-0-1-4-1-0-1--4--1-0-1-4-1-0-1-6-5-1-4~-|
       * * * * * * * * * * * *       * * * * * * 



1
------------------------------------------------------------|
------------------------------------------------------------|
------------------------------------------------------------|
------------------------------------------------------------|
-1--4--1-0-1-4-1-0-1-0-1-4-1-0-1--4--1-0-1-4-1-0------------|
-1--4--1-0-1-4-1-0-1-0-1-4-1-0-1--4--1-0-1-4-1-0-1-6-5-1-4~-|
       * * * * * * * * * * * *       * * * * * * 
2
--------------------------------------------------------------------|
--------------------------------------------------------------------|
--------------------------------------------------------------------|
-8--11--8-7-8-11-8-7-8-7-8-11-8-7-8--11--8-7-8-11-8-7-8-13-12-8-11~-|
--------------------------------------------------------------------|
--------------------------------------------------------------------|

1
------------------------------------------------------------|
------------------------------------------------------------|
------------------------------------------------------------|
------------------------------------------------------------|
-1--4--1-0-1-4-1-0-1-0-1-4-1-0-1--4--1-0-1-4-1-0------------|
-1--4--1-0-1-4-1-0-1-0-1-4-1-0-1--4--1-0-1-4-1-0-1-6-5-1-4~-|
       * * * * * * * * * * * *       * * * * * * 
2
--------------------------------------------------------------------|
--------------------------------------------------------------------|
--------------------------------------------------------13-12-8-11--|
-8--11--8-7-8-11-8-7-8-7-8-11-8-7-8--11--8-7-8-11-8-7-8-------------|
--------------------------------------------------------------------|
--------------------------------------------------------------------|













\\\\\\\\\\\\\\\\\\\\\\\\\\\\\\\\\\\\\\\\\\\\\\\\\\\\\\\\\\\\\\\\\\\
\\\\\\\\\\\\\\\\\\\\\\\\\\\\\\\\\\\\\\\\\\\\\\\\\\\\\\\\\\\\\\\\\\\\\
\\\\\\\\\\\\\\\\\\\\\\\\\\\\\\\\\\\\\\\\\\\\\\\\\\\\\\\\\\\\\\\\\\\\\\\
\\\\\\\\\\\\\\\\\\\\\\\\\\\\\\\\\\\\\\\\\\\\\\\\\\\\\\\\\\\\\\\\\\\\\\\\\\















SLIPKNOT


GOODBYE

B-F#-B-E-G#-C#


TABBED BY andherembrace




arranged for gtr
------------------------------------------------|
------------------------------------------------|
11-----14-----------------11-----14-------------|
---------------12-------------------------12----|
------------------------------------------------|
------------------------------------------------|




0:55


1
----------------------------------------------------------------------------------------------|
----------------------------------------------------------------------------------------------|
11-----14-----------------11-----14------------------11----14----------------11----14---------|
---------------12-------------------------12----------------------12------------------------12|
----------------------------------------------------------------------------------------------|
----------------------------------------------------------------------------------------------|

2
17----------19\14---------17----------21\14---------17------------16-----------14-----------|
--------------------------------------------------------------------------------------------|
--------------------------------------------------------------------------------------------|
--------------------------------------------------------------------------------------------|
--------------------------------------------------------------------------------------------|
--------------------------------------------------------------------------------------------|




1:16

arranged for gtr
                                       ][
-----------------------------------------------------------------------17-------------|
--------------------------------------------------------------------------------------|
-9-----11-----14---13------14--------------9---------11-----13---14-16----------9-11--|
----------------------------------12--------------------------------------12----------|
--------------------------------------------------------------------------------------|
--------------------------------------------------------------------------------------|


                                       ][
------------------------------------------------------------------------------------|
-----------------------------------------------^------------------------------------|
-9-----11-----13----------14--------------9--9--11-----11-----13---14---14----------|
---------------------------------12-------------------------------------------------|
------------------------------------------------------------------------------------|
------------------------------------------------------------------------------------|


2:02

1
---------------------------------------------------------|
---------------------------------------------------------|
11-----14-------7---------11-----14-------7-------14-----|
---------------------------------------------------------|
---------------------------------------------------------|
---------------------------------------------------------|


2
17-------------16---------17----------21\14--------------|
---------------------------------------------------------|
---------------------------------------------------------|
---------------------------------------------------------|
---------------------------------------------------------|
---------------------------------------------------------|









2:12

1
------------------------------------------------------|
------------------------------------------------------|
------------------------------------------------------|
------------------------------------------------------|
------------------------------1--0--8--7--1--0--8--7--|
-0-----12~~~~\-0-----12~~~~\--1--0--8--7--1--0--8--7--|

2
------------------------------------------------------|
------------------------------------------------------|
------------------------------------------------------|
-----------------------------------------/8-7-/13-12--|
-5-----12------5-----12-----/6--5-/10--9--------------|
------------------------------------------------------|



2:24


1
--------------------------------------------------------------------------|
--------------------------------------------------------------------------|
--------------------------------------------------------------------------|
--------------------------------------------------------------------------|
-1-1-1-1-1---1-1-1-1-1---1-1-1-1-1---1-1-1-1-1------------0--13--10-12----|
-1-1-1-1-1-0-1-1-1-1-1-0-1-1-1-1-1-0-1-1-1-1-1-0-0-12~~~~-0--13--10-12----|
 * * * * *   * * * *  *  * * * * *   * * * * * *

2
--------------------------------------------------------------------------|
-///--------------------///-----------------------------------------------|
-15---------------------14-----------11~~~--------------------------------|
--------------------------------------------------------------------------|
---------------------------------------------------12-----0--13--10-12----|
-------------------------------------------------0--------0--13--10-12----|



1
-------------------------------------------------------------------------|
-------------------------------------------------------------------------|
-------------------------------------------------------------------------|
-------------------------------------------------------------------------|
1--0--------1--0--------1-1-1-1-1---1-1-1-1-1---1-1-1-1-1---1-1-1-1-1----|
1--0--8--7~-1--0--8--7~-1-1-1-1-1-0-1-1-1-1-1-0-1-1-1-1-1-0-1-1-1-1-1-0--|
                        * * * * * * * * * * * * * * * * * * * * * * * * 

2
-------------------------------------------------------------------------|
---------------------------///--------------------///--------------------|
---------------------------15---------------------14-----------11~~~-----|
--------------/8-7-/13-12------------------------------------------------|
-/6--5-/10--9------------------------------------------------------------|
-------------------------------------------------------------------------|




2:45


1
---------------------------------------------|
---------------------------------------------|
------------10-101010------------------------|
-------------x--x-x-x------------------------|
-3--3-3-3----8--8-8-8---3--3-3-3-------------|
-3--3-3-3-0-----------0-3--3-3-3-0-7--8-8-7--|

2
-----------------------------------------------------------------------|
-----------------------------------------------------------------------|
-5--5-5-5--10-101010---5-5-5-51212121214141414121212121212101010101010-|
-x--x-x-x---X--X-X-X---X-X-X-X-X-X-X-X-X-X-X-X-X-X-X-X-X-x-X-X-X-X-X-x-|
-3--3-3-3---8--8-8-8---3-3-3-31010101012121212101010101010-8-8-8-8-8-8-|
----------0----------0-------------------------------------------------|


1
---------------------------------------------|
---------------------------------------------|
---------------------------------------------|
---------------------------------------------|
-1--1-1-1---1--1-1-1---1--1-1-1---1--1-1-1---|
-1--1-1-1-0-1--1-1-1-0-1--1-1-1-0-1--1-1-1-0-|

2
---------------------------------------------|
---------------------------------------------|
---------------------------------------------|
---------------------------------------------|
-1--1-1-1-0-1--1-1-1-0-1--1-1-1-0-1--1-1-1-0-|
---------------------------------------------|








1
---------------------------------------------|
---------------------------------------------|
------------10-101010------------------------|
-------------x--x-x-x------------------------|
-3--3-3-3----8--8-8-8---3--3-3-3-------------|
-3--3-3-3-0-----------0-3--3-3-3-0-7--8-8-7--|

2
-----------------------------------------------------------------------|
-----------------------------------------------------------------------|
-5--5-5-5--10-101010---5-5-5-51212121214141414121212121212101010101010-|
-x--x-x-x---X--X-X-X---X-X-X-X-X-X-X-X-X-X-X-X-X-X-X-X-X-x-X-X-X-X-X-x-|
-3--3-3-3---8--8-8-8---3-3-3-31010101012121212101010101010-8-8-8-8-8-8-|
----------0----------0-------------------------------------------------|



1
---------------------------------------------|
---------------------------------------------|
---------------------------------------------|
---------------------------------------------|
-1--1-1-1---1--1-1-1---1--1-1-1---1--1-1-1---|
-1--1-1-1-0-1--1-1-1-0-1--1-1-1-0-1--1-1-1-0-|

2
---------------------------------------------|
---------------------------------------------|
---------------------------------------------|
---------------------------------------------|
-1--1-1-1-0-1--1-1-1-0-1--1-1-1-0-1--1-1-1-0-|
---------------------------------------------|





1
---------------------------------------------|
---------------------------------------------|
------------10-101010------------------------|
-------------x--x-x-x------------------------|
-3--3-3-3----8--8-8-8---3--3-3-3-------------|
-3--3-3-3-0-----------0-3--3-3-3-0-7--8-8-7--|

2
-----------------------------------------------------------------------|
-----------------------------------------------------------------------|
-5--5-5-5--10-101010---5-5-5-51212121214141414121212121212101010101010-|
-x--x-x-x---X--X-X-X---X-X-X-X-X-X-X-X-X-X-X-X-X-X-X-X-X-x-X-X-X-X-X-x-|
-3--3-3-3---8--8-8-8---3-3-3-31010101012121212101010101010-8-8-8-8-8-8-|
----------0----------0-------------------------------------------------|



1
---------------------------------------------|
---------------------------------------------|
---------------------------------------------|
---------------------------------------------|
-1--1-1-1---1--1-1-1---1--1-1-1---1--1-1-1---|
-1--1-1-1-0-1--1-1-1-0-1--1-1-1-0-1--1-1-1-0-|

2
---------------------------------------------|
---------------------------------------------|
---------------------------------------------|
---------------------------------------------|
-1--1-1-1-0-1--1-1-1-0-1--1-1-1-0-1--1-1-1-0-|
---------------------------------------------|







1
---------------------------------------------|
---------------------------------------------|
------------10-101010------------------------|
-------------x--x-x-x------------------------|
-3--3-3-3----8--8-8-8---3--3-3-3-------------|
-3--3-3-3-0-----------0-3--3-3-3-0-7--8-8-7--|

2
----------------------------------------------------------------------------------|
----------------------------------------------------------------------------------|
-10101010101010101010101010101010-5-5-5-51212121214141414121212121212101010101010-|
--X-X-X-X-X-X-X-X-X-X-X-X-X-X-X-X-X-X-X-X-X-X-X-X-X-X-X-X-X-X-X-X-X-X-X-X-X-X-x-x-|
--8-8-8-8-8-8-8-8-8-8-8-8-8-8-8-8-3-3-3-31010101012121212101010101010-8-8-8-8-8-8-|
----------------------------------------------------------------------------------|


1
---------------------------------------------|
---------------------------------------------|
---------------------------------------------|
---------------------------------------------|
-1--1-1-1---1--1-1-1---1--1-1-1---1--1-1-1---|
-1--1-1-1-0-1--1-1-1-0-1--1-1-1-0-1--1-1-1-0-|

2
---------------------------------------------|
---------------------------------------------|
---------------------------------------------|
---------------------------------------------|
-1--1-1-1-0-1--1-1-1-0-1--1-1-1-0-1--1-1-1-0-|
---------------------------------------------|






3:27

1
---------------------------------------------------------|
---------------------------------------------------------|
---------------------------------------------------------|
---------------------------------------------------------|
-1---1---1---1---1---1-------------0--2--3---------------|
-1---1---1---1---1---1--/7--8--8-7-0--2--3--/7--8--8-7---|

2
---------------------------------------------------------|
---------------------------------------------------------|
---------------------------------------------------------|
---------------------------------------------------------|
-1---1---1---1---1---1-------------0--2--3---7--8--8-7---|
-1---1---1---1---1---1--/7--8--8-7-----------------------|






1
--------------------------------------------------|
--------------------------------------------------|
--------------------------------------------------|
--------------------------------------------------|
-1-1-1-1-1---1-1-1-1-1---1-1-1-1-1---1-1-1-1-1----|
-1-1-1-1-1-0-1-1-1-1-1-0-1-1-1-1-1-0-1-1-1-1-1-0--|
 * * * * * * * * * * * * * * * * * * * * * * * * 
2
--------------------------------------------------|
--------------------------------------------------|
--------------------------------------------------|
------------------------------------/10--8--7-----|
-/10--------12-------13-12-13---------------------|
--------------------------------------------------|





1
-------------------------------------------------------------------------|
-------------------------------------------------------------------------|
-------------------------------------------------------------------------|
-------------------------------------------------------------------------|
1--0--8--7--1--0--8--7--1-1-1-1-1---1-1-1-1-1---1-1-1-1-1---1-1-1-1-1----|
1--0--8--7--1--0--8--7--1-1-1-1-1-0-1-1-1-1-1-0-1-1-1-1-1-0-1-1-1-1-1-0--|
                        * * * * * * * * * * * * * * * * * * * * * * * * 

2
-------------------------------------------------------------------------|
---------------------------///--------------------///--------------------|
---------------------------15---------------------14-----------11~~~-----|
--------------/8-7-/13-12------------------------------------------------|
-/6--5-/10--9------------------------------------------------------------|
-------------------------------------------------------------------------|




3:53

1
------------------------------------------------------------------------|
------------------------------------------------------------------------|
------------------------------------------------------------------------|
------------------------------------------------------------------------|
-0--2--3---------------1-1-1-1-1---1-1-1-1-1---1-1-1-1-1---1-1-1-1-1----|
-0--2--3--/7--8--8-7---1-1-1-1-1-0-1-1-1-1-1-0-1-1-1-1-1-0-1-1-1-1-1-0--|
                       * * * * * * * * * * * * * * * * * * * * * * * * 
2                                     _____
-------------------------)-(---)~~~--/     \------20---------------------------|
-----------------------20----20----18-20-18-17-18----18-17---------------------|
-----------------------------------------------------------19~~17-19-20-19-17~~|
-------------------------------------------------------------------------------|
-0--2--3---7--8--8-7-----------------------------------------------------------|
-------------------------------------------------------------------------------|
                                                                    /




1
-------------------------------------------------------------------------|
-------------------------------------------------------------------------|
-------------------------------------------------------------------------|
-------------------------------------------------------------------------|
1--0--8--7--1--0--8--7--1-1-1-1-1---1-1-1-1-1---1-1-1-1-1---1-1-1-1-1----|
1--0--8--7--1--0--8--7--1-1-1-1-1-0-1-1-1-1-1-0-1-1-1-1-1-0-1-1-1-1-1-0--|
                        * * * * * * * * * * * * * * * * * * * * * * * * 

2
-------------------------------------------------------------------------|
-------------------------------------------------///---------------------|
---------------------------15~~~~-----------------14-----------11~~~-----|
--------------/8-7-/13-12------------------------------------------------|
-/6--5-/10--9------------------------------------------------------------|
-------------------------------------------------------------------------|





----------------------------------------------------------------------------|
----------------------------------------------------------------------------|
----------------------------------------------------------------------------|
-0--------------------------------------------------------------------------|
-0--------------------------------------------------------------------------|
-0--------------------------------------------------------------------------|




--------------------------------------------------------|
--------------------------------------------------------|
--------------------------------------------------------|
--------------------------------------------------------|
-1--1--1------------------7--7--7-----------------------|
-1--1--1-5555444477775555-7--7--7-88887777101010108888--|


-------------------------------------|
-------------------------------------|
-------------------------------------|
-------------------------------------|
-1--1--1------------------7--7--7-7--|
-1--1--1-5555444477775555-7--7--7-7--|










\\\\\\\\\\\\\\\\\\\\\\\\\\\\\\\\\\\\\\\\\\\\\\\\\\\\\\\\\\\\\\\\\\\\\\\\\\\
\\\\\\\\\\\\\\\\\\\\\\\\\\\\\\\\\\\\\\\\\\\\\\\\\\\\\\\\\\\\\\\\\\\\\\\\\\\\\\\\
\\\\\\\\\\\\\\\\\\\\\\\\\\\\\\\\\\\\\\\\\\\\\\\\\\\\\\\\\\\\\\\\\\\\\\\\\\\\\\\\
\\\\\\\\\\\\\\\\\\\\\\\\\\\\\\\\\\\\\\\\\\\\\\\\\\\\\\\\\\\\\\\\\\\\\\\\\\\\\\\\\










SLIPKNOT 

NOMADIC


B-F#-B-E-G#-C#


TABBED BY andherembrace


video reference

https://drive.google.com/file/d/0B1AHRImLJJTYamY2aUpvSGl1NDQ/view?pli=1




------------------------------------------------------------|
------------------------------------------------------------|
------------------------------------------------------------|
------------------------------------------------------------|
----------------1-------------2---------------3----------)(-|
\-1-1-0---0-1-2---1-0---0-1-2---1-0---0-1-2-3---3-2-1-0-1---|
        |             |             |             

------------------------------------------------------|
------------------------------------------------------|
------------------------------------------------------|
------------------------------------------------------|
----------------1-----------------------3----------)(-|
\-1-1-0---0-1-2---1-0---0-1-2-000-000-3---3-2-1-0-1---|
        |             |       *** ***






0:10


------------------------------------------------------------|
------------------------------------------------------------|
------------------------------------------------------------|
------------------------------------------------------------|
--1-1-0---------1---0---------2---0-----------3----------)(-|
--1-1-0---0-1-2---1-0---0-1-2---1-0---0-1-2-3---3-2-1-0-1---|


------------------------------------------------------------|
------------------------------------------------------------|
------------------------------------------------------------|
------------------------------------------------------------|
--1-1-0---------1---0---------2---0-----------3----------)(-|
--1-1-0---0-1-2---1-0---0-1-2---1-0---0-1-2-3---3-2-1-0-1---|







---------------------------------------------------------------------|
---------------------------------------------------------------------|
---------------------------------------------------------------------|
---------------------------------------------------------------------|
-1-1-0---------3-3-0---------1-1-0----3-3-0----1-1-0---3----------)(-|
-1-1-0---------3-3-0---------1-1-0----3-3-0----1-1-0-----3-2-1-0-1---|
       |             |             |        |        |




0:32


------------------------------------------------------------|
------------------------------------------------------------|
------------------------------------------------------------|
------------------------------------------------------------|
----------------1-------------2---------------3----------)(-|
--1-1-0---0-1-2---1-0---0-1-2---1-0---0-1-2-3---3-2-1-0-1---|
        |             |             |             


------------------------------------------------------------|
------------------------------------------------------------|
------------------------------------------------------------|
------------------------------------------------------------|
----------------1-------------2---------------3----------)(-|
--1-1-0---0-1-2---1-0---0-1-2---1-0---0-1-2-3---3-2-1-0-1---|
        |             |             |             





0:42




R GTR PLAYS 6TH+ 5TH STRINGS ONLY ON POWER CHRDS

--------------------------------------------------------|
--------------------------------------------------------|
--------------------------------------------------------|
-1--1--1------------------7--7--7-----------------------|
-1--1--1------------------7--7--7-----------------------|
-1--1--1-5555444477775555-7--7--7-88887777101010108888--|


-------------------------------------|
-------------------------------------|
-------------------------------------|
-1--1--1------------------7--7--7-7--|
-1--1--1------------------7--7--7-7--|
-1--1--1-5555444477775555-7--7--7-7--|








0:53


-------------------------------------------------------------------|
-------------------------------------------------------------------|
-------------------------------------------------------------------|
-------------------------------------------------------------------|
-----------------------------------------------------7------7------|
-15\-0-0-0-0-0-0-4-5-6-6-6-6-6-6-5-6-7-7-7-7-7-7-7-7-8-0000-8-15\--|
                                                       ****


----------------------------------------------------------------|
----------------------------------------------------------------|
----------------------------------------------------------------|
----------------------------------------------------------------|
--------------------------------------------------7------7------|
--0-0-0-0-0-0-4-5-6-6-6-6-6-6-5-6-7-7-7-7-7-7-7-7-8-0000-8-15\--|
                                                    ****


---------------------------------------------------------|
---------------------------------------------------------|
---------------------------------------------------------|
---------------------------------------------------------|
-0--0--0------1--1--1------8-8-8-8-8-8-8-8-7------7------|
-0--0--0--15\-1--1--1--6-7-8-8-8-8-8-8-8-8-8-0000-8-15\--|
                                             ****



----------------------------------------------------------------|
----------------------------------------------------------------|
-14-------------------------------------------------------------|
--X-------------------------------------------------------------|
-12-----------------------------------------------7------7------|
--------------4-5-6-6-6-6-6-6-5-6-7-7-7-7-7-7-7-7-8-0000-8-15\--|
                                                    ****

R
----------------------------------------------------------------|
----------------------------------------------------------------|
----------------------------------------------------------------|
----------------------------------------------------------------|
--------------------------------------------------7------7------|
--0-0-0-0-0-0-4-5-6-6-6-6-6-6-5-6-7-7-7-7-7-7-7-7-8-0000-8-15\--|
                                                    ****




1:14



------------------------------------------------------------|
------------------------------------------------------------|
------------------------------------------------------------|
------------------------------------------------------------|
----------------1-------------2---------------3-2-1-0-----1-|
--1-1-0---0-1-2---1-0---0-1-2---1-0---0-1-2-3---------3-2-1-|
        |             |             |             




1
-------------------------------------------------------------|
-------------------------------------------------------------|
-------------------------------------------------------------|
-------------------------------------------------------------|
----------------1-------------2---------------3----------)(--|
--1-1-0---0-1-2---1-0---0-1-2---1-0---0-1-2-3---3-2-1-0-1----|
        |             |             |             
2
-------------------------------------------------------------|
///-----------------------------------------------------///--|
-7-----------------------------------------------------/14---|
-------------------------------------------------------------|
-------------------------------------------------------------|
-------------------------------------------------------------|


1
------------------------------------------------------------|
------------------------------------------------------------|
------------------------------------------------------------|
------------------------------------------------------------|
----------------1-------------2---------------3----------^--|
--1-1-0---0-1-2---1-0---0-1-2---1-0---0-1-2-3---3-2-1-0-1-0-|
        |             |             |             

2
-------------------------------------------------///---///---|
///-----------------------------------------------15---16----|
-7-----------------------------------------------------------|
-------------------------------------------------------------|
-------------------------------------------------------------|
-------------------------------------------------------------|







1:32

-------------------------------------------------------------------|
-------------------------------------------------------------------|
-------------------------------------------------------------------|
-------------------------------------------------------------------|
--^---------------1---------------2-----------------3----------)(--|
-1-0-0-0-0-0-1-2----0-0-0-0-0-1-2---0-0-0-0-0-1-2-3---3-2-1-0-1----|
     * * * *          * * * *         * * * *

-------------------------------------------------------------------|
-------------------------------------------------------------------|
-------------------------------------------------------------------|
-------------------------------------------------------------------|
--^---------------1---------------2-----------------3--------------|
-1-0-0-0-0-0-1-2----0-0-0-0-0-1-2---0-0-0-0-0-1-2-3---3-2-1-0-1-/-\|
     * * * *          * * * *         * * * *





1:42



R GTR PLAYS 6TH+ 5TH STRINGS ONLY ON POWER CHRDS

--------------------------------------------------------|
--------------------------------------------------------|
--------------------------------------------------------|
-1--1--1------------------7--7--7-----------------------|
-1--1--1------------------7--7--7-----------------------|
-1--1--1-5555444477775555-7--7--7-88887777101010108888--|


-------------------------------------|
-------------------------------------|
-------------------------------------|
-1--1--1------------------7--7--7-7--|
-1--1--1------------------7--7--7-7--|
-1--1--1-5555444477775555-7--7--7-7--|





1:54


-------------------------------------------------------------------|
-------------------------------------------------------------------|
-------------------------------------------------------------------|
-------------------------------------------------------------------|
-----------------------------------------------------7------7------|
-15\-0-0-0-0-0-0-4-5-6-6-6-6-6-6-5-6-7-7-7-7-7-7-7-7-8-0000-8-15\--|
                                                       ****


----------------------------------------------------------------|
----------------------------------------------------------------|
----------------------------------------------------------------|
----------------------------------------------------------------|
--------------------------------------------------7------7------|
--0-0-0-0-0-0-4-5-6-6-6-6-6-6-5-6-7-7-7-7-7-7-7-7-8-0000-8-15\--|
                                                    ****



---------------------------------------------------------|
---------------------------------------------------------|
---------------------------------------------------------|
---------------------------------------------------------|
-0--0--0------1--1--1------8-8-8-8-8-8-8-8-7------7------|
-0--0--0--15\-1--1--1--6-7-8-8-8-8-8-8-8-8-8-0000-8-15\--|
                                             ****



----------------------------------------------------------------|
----------------------------------------------------------------|
-14-------------------------------------------------------------|
--X-------------------------------------------------------------|
-12-----------------------------------------------7------7------|
--------------4-5-6-6-6-6-6-6-5-6-7-7-7-7-7-7-7-7-8-0000-8-15\--|
                                                    ****

R
----------------------------------------------------------------|
----------------------------------------------------------------|
----------------------------------------------------------------|
----------------------------------------------------------------|
--------------------------------------------------7------7------|
--0-0-0-0-0-0-4-5-6-6-6-6-6-6-5-6-7-7-7-7-7-7-7-7-8-0000-8-15\--|
                                                    ****





2:14



--------------------------------------------------|
--------------------------------------------------|
--------------------------------------------------|
---------_-----------_-----------_----------------|
--^-----/ \---^-----/ \---^-----/ \----3--^---^---|
-1-0---0-1-2-1-0---0-1-2-1-0---0-1-2-3---3-2-1-0--|


--------------------------------------------------|
--------------------------------------------------|
--------------------------------------------------|
---------_-----------_-----------_----------------|
--^-----/ \---^-----/ \---^-----/ \----3--^---^---|
-1-0---0-1-2-1-0---0-1-2-1-0---0-1-2-3---3-2-1-0--|


--------------------------------------------------|
--------------------------------------------------|
--------------------------------------------------|
---------_-----------_-----------_----------------|
--^-----/ \---^-----/ \---^-----/ \----3--^---^---|
-1-0---0-1-2-1-0---0-1-2-1-0---0-1-2-3---3-2-1-0--|


--------------------------------------------------|
--------------------------------------------------|
--------------------------------------------------|
---------_-----------_-----------_----------------|
--^-----/ \---^-----/ \---^-----/ \----3--^---^---|
-1-0---0-1-2-1-0---0-1-2-1-0---0-1-2-3---3-2-1-0--|







RYTHM THRU SOLO
2:30-2:52

-------------------------------------------------------------------------------|
-------------------------------------------------------------------------------|
-------------------------------------------------------------------------------|
-------------------------------------------------------------------------------|
-4-4------4-4------5-5-4-4------4-4------5-5-4-4------4-4------5-5-4-4------4--|
-4-4-4444-4-4-4444-5-5-4-4-4444-4-4-4444-5-5-4-4-4444-4-4-4444-5-5-4-4-4444-4--|
     ****     ****         ****     ****         ****     ****         ****    

-------------------------------------|
-------------------------------------|
-------------------------------------|
-------------------------------------|
-4-4------4-2-3-4-3-2-1-2-3-4-3-2-1--|
-4-4-4444-4-2-3-4-3-2-1-2-3-4-3-2-1--|
     ****   * * * * * * * * * * * * 



-------------------------------------------------------------------------------|
-------------------------------------------------------------------------------|
-------------------------------------------------------------------------------|
-------------------------------------------------------------------------------|
-4-4------4-4------5-5-4-4------4-4------5-5-4-4------4-4------5-5-4-4------4--|
-4-4-4444-4-4-4444-5-5-4-4-4444-4-4-4444-5-5-4-4-4444-4-4-4444-5-5-4-4-4444-4--|
     ****     ****         ****     ****         ****     ****         ****    

--------------------------|
--------------------------|
--------------------------|
--------------------------|
-4-4------4-2-3-4-3-2-1---|
-4-4-4444-4-2-3-4-3-2-1---|
     ****   * * * * * * 





2:30
                                __                                             __
                               /  \                                           /  \
---------------^-------------13-16-13-------------------------^-------------13-16-13----------|
-----12------15-12------^--15--------15-------------12------15-12------^--15--------15--------|
---13--13--13-----13--13-16------------16-13------13--13--13-----13--13-16------------16-13---|
-15------15---------15-----------------------15-15------15---------15----------------------15-|
----------------------------------------------------------------------------------------------|
----------------------------------------------------------------------------------------------|
                                __                                            __
                               /  \                                          /  \
---------------^-------------16-19-16--------------------------------------16-19-16-----------|
-----15------18-15---------18--------18------------15------18-15------^--18--------18---------|
---16--16--16-----16--16-19------------19-16-----16--16--16-----16--16-19------------19-16----|
-18------18---------18----------------------18-18------18---------18----------------------18--|
----------------------------------------------------------------------------------------------|
----------------------------------------------------------------------------------------------|
2:36


--------------------------------------------------------------------------------|
---)---(----)()()()(------)---(----)()()(------///-GRAD BENDS-TO 19 EQUIVELENT--|
-20------18-------------22-------19------\-----16-------------------------------|
--------------------------------------------------------------------------------|
--------------------------------------------------------------------------------|
--------------------------------------------------------------------------------|


2:42


        )(          )(     ^           ^   
------16----------19--17-19-17-16/17-21-17-16-----------__----------|
/14-17----17-14-17---------------------------17--------/  \---------|
-----------------------------------------------16\14-13/14\13~~~~\--|
--------------------------------------------------------------------|
--------------------------------------------------------------------|
--------------------------------------------------------------------|

      __         __          __          __
     /  \       /  \        /  \        /  \
---17-21-17---17-21-17----17-21-17----17-21-17----|
/19---------19----------19----------19---------19-|
--------------------------------------------------|
--------------------------------------------------|
--------------------------------------------------|
--------------------------------------------------|

       __          __          __          __
      /  \        /  \        /  \        /  \
----16-19-16----16-19-16----16-19-16----16-19-16-----|
-17----------17----------17----------17----------17--|
-----------------------------------------------------|
-----------------------------------------------------|
-----------------------------------------------------|
-----------------------------------------------------|

     __          __          __          __
    /  \        /  \        /  \        /  \
--14-17-14----14-17-14----14-17-14----14-17-14---14-\-|
15---------15----------15----------15---------15------|
------------------------------------------------------|
------------------------------------------------------|
------------------------------------------------------|
------------------------------------------------------|

       ______________
      /              \             ____________
----10-12-14-12-10-12-10---10\9---/            \-----------|
-12---------------------14------10-12-10-9-10-9-10---------|
---------------------------------------------------11~-----|
-----------------------------------------------------------|
-----------------------------------------------------------|
-----------------------------------------------------------|






2:52



---------------------------------------------------------|
---------------------------------------------------------|
---------------------------------------------------------|
---------------------------------------------------------|
-4-4-------------------------4-4-------------------------|
-4-4-4-6-5-0-4-3-0-5-4-0-3-0-4-4-4-6-5-0-4-3-0-5-4-0-3-0-|


--------------------------------------------------|
--------------------------------------------------|
--------------------------------------------------|
--------------------------------------------------|
-4-4-------------------------4-4---------2--5--3--|
-4-4-4-6-5-0-4-3-0-5-4-0-3-0-4-4-4-6-5-0-2--5--3--|





3:03


-------------------------------------------------------------|
-------------------------------------------------------------|
-------------------------------------------------------------|
-------------------------------------------------------------|
-4-----------------------------4-----------------------------|
-4-4-4-4-6-5-0-4-3-0-5-4-0-3-0-4-4-4-4-6-5-0-4-3-0-5-4-0-3-0-|
   * * *                         * * *


------------------------------------------------------|
------------------------------------------------------|
------------------------------------------------------|
------------------------------------------------------|
-4-----------------------------4-------------2--5--3--|
-4-4-4-4-6-5-0-4-3-0-5-4-0-3-0-4-4-4-4-6-5-0-2--5--3--|
   * * *                         * * *







-----------------------------------------------------|
-----------------------------------------------------|
-----------------------------------------------------|
-1--1--1------------------7--7--7--------------------|
-1--1--1------------------7--7--7--------------------|
-1--1--1-5555444477775555-7--7--7-8-7-10-7-8-7-10-7--|
                                  * *  * * * *  * *

------------------------------------------------|
------------------------------------------------|
------------------------------------------------|
-1--1--1----------------------------------------|
-1--1--1--------------------------------------7-|
-1--1--1-555544447777555510101010888877778888-7-|






-------------------------------------------------------------------|
-------------------------------------------------------------------|
-------------------------------------------------------------------|
-------------------------------------------------------------------|
-----------------------------------------------------7------7------|
-15\-0-0-0-0-0-0-4-5-6-6-6-6-6-6-5-6-7-7-7-7-7-7-7-7-8-0000-8-15\--|
                                                       ****


----------------------------------------------------------------|
----------------------------------------------------------------|
----------------------------------------------------------------|
----------------------------------------------------------------|
--------------------------------------------------7------7------|
--0-0-0-0-0-0-4-5-6-6-6-6-6-6-5-6-7-7-7-7-7-7-7-7-8-0000-8-15\--|
                                                    ****


---------------------------------------------------------------|
---------------------------------------------------------------|
---------------------------------------------------------------|
---------------------------------------------------------------|
-0-0-0-0-0-0-0-0-1-1-1-1-1-1-1-1-8-8-8-8-8-8-8-8-7------7------|
-0-0-0-0-0-0-0-0-1-1-1-1-1-1-1-1-8-8-8-8-8-8-8-8-8-0000-8-15\--|
 * * * * * * * * * * * * * * * * * * * * * * * *   ****


L
----------------------------------------------------------------|
----------------------------------------------------------------|
-14-------------------------------------------------------------|
--X-------------------------------------------------------------|
-12-----------------------------------------------7------7------|
--------------4-5-6-6-6-6-6-6-5-6-7-7-7-7-7-7-7-7-8-0000-8-15\--|
                                                    ****

R
----------------------------------------------------------------|
----------------------------------------------------------------|
----------------------------------------------------------------|
----------------------------------------------------------------|
--------------------------------------------------7------7------|
--0-0-0-0-0-0-4-5-6-6-6-6-6-6-5-6-7-7-7-7-7-7-7-7-8-0000-8-15\--|
                                                    ****





3:45


-------------------------------------------------------------------|
-------------------------------------------------------------------|
-------------------------------------------------------------------|
-------------------------------------------------------------------|
--^---------------1---------------2-----------------3----------)(--|
-1-0-0-0-0-0-1-2----0-0-0-0-0-1-2---0-0-0-0-0-1-2-3---3-2-1-0-1----|
     * * * *          * * * *         * * * *

-------------------------------------------------------------------|
-------------------------------------------------------------------|
-------------------------------------------------------------------|
-------------------------------------------------------------------|
--^---------------1---------------2-----------------3----------)(--|
-1-0-0-0-0-0-1-2----0-0-0-0-0-1-2---0-0-0-0-0-1-2-3---3-2-1-0-1----|
     * * * *          * * * *         * * * *




3:55

------------------------------------------------------------|
------------------------------------------------------------|
------------------------------------------------------------|
------------------------------------------------------------|
----------------1-------------2---------------3----------)(-|
--1-1-0---0-1-2---1-0---0-1-2---1-0---0-1-2-3---3-2-1-0-1---|


------------------------------------------------------------|
------------------------------------------------------------|
------------------------------------------------------------|
------------------------------------------------------------|
----------------1-------------2---------------3----------)(-|
--1-1-0---0-1-2---1-0---0-1-2---1-0---0-1-2-3---3-2-1-0-1---|



------------------------------------------------------------|
------------------------------------------------------------|
------------------------------------------------------------|
------------------------------------------------------------|
----------------1-------------2---------------3----------)(-|
--1-1-0---0-1-2---1-0---0-1-2---1-0---0-1-2-3---3-2-1-0-1---|


------------------------------------------------------------|
------------------------------------------------------------|
------------------------------------------------------------|
------------------------------------------------------------|
----------------1-------------2---------------3---------1-0-|
--1-1-0---0-1-2---1-0---0-1-2---1-0---0-1-2-3---3-2-1-0-1-0-|













\\\\\\\\\\\\\\\\\\\\\\\\\\\\\\\\\\\\\\\\\\\\\\\\\\\\\\\\\\\\\\\\\\\\\\
\\\\\\\\\\\\\\\\\\\\\\\\\\\\\\\\\\\\\\\\\\\\\\\\\\\\\\\\\\\\\\\\\\\\\\
\\\\\\\\\\\\\\\\\\\\\\\\\\\\\\\\\\\\\\\\\\\\\\\\\\\\\\\\\\\\\\\\\\\\\\
\\\\\\\\\\\\\\\\\\\\\\\\\\\\\\\\\\\\\\\\\\\\\\\\\\\\\\\\\\\\\\\\\\\\\\














SLIPKNOT

THE ONE THAT KILLS THE LEAST


B-F#-B-E-G#-C#


TABBED BY andherembrace








1
---------------------------------------------------------------------------------|
---------------------------------------------------------------------------------|
---------------------------------------------------------------------------------|
---------------------------------------------------------------------------------|
---------------------------------------------------------------------------------|
-/8-------7-8-7--1---------------0-----------------------------------------------|

2
---------------------------------------------------------------------------------|
---------------------------------------------------------------------------------|
-15--15--15--15--15--15--15--15--14-14-12-12-15-15-12-12-14-14-12-12-15-15-12-12-|
---------------------------------------------------------------------------------|
---------------------------------------------------------------------------------|
---------------------------------------------------------------------------------|
   |   |   |   |   |   |   |   |




1
---------------------------------------------------------------------------------|
---------------------------------------------------------------------------------|
---------------------------------------------------------------------------------|
---------------------------------------------------------------------------------|
---------------------------------------------------------------------------------|
-/8----------------------\-------------------------------------------------------|

2
---------------------------------------------------------------------------------|
-----------------------------------^-----^-----^-----^-----^-----^-----^-----^---|
-15--15--15--15--15--15--15--15--14-15-14-15-14-15-14-15-14-15-14-15-14-15-14-15-|
---------------------------------------------------------------------------------|
---------------------------------------------------------------------------------|
---------------------------------------------------------------------------------|
   |   |   |   |   |   |   |   |




0:15

1
---------------------------------------------------------------------------------|
---------------------------------------------------------------------------------|
---------------------------------------------------------------------------------|
---------------------------------------------------------------------------------|
---------------------------------------------------------------------------------|
-/8-------7-8-7--1---------------0-----------------------------------------------|

2
---------------------------------------------------------------------------------|
---------------------------------------------------------------------------------|
-15--15--15--15--15--15--15--15--14-14-12-12-15-15-12-12-14-14-12-12-15-15-12-12-|
---------------------------------------------------------------------------------|
---------------------------------------------------------------------------------|
---------------------------------------------------------------------------------|
   |   |   |   |   |   |   |   |






1
---------------------------------------------------------------------------------|
---------------------------------------------------------------------------------|
---------------------------------------------------------------------------------|
---------------------------------------------------------------------------------|
---------------------------------------------------------------------------------|
-/8-------7-8-7--1----------1-3-0------------------------------------------------|

2
---------------------------------------------------------------------------------|
-----------------------------------^-----^-----^-----^-----^-----^-----^-----^---|
-15--15--15--15--15--15--15--15--14-15-14-15-14-15-14-15-14-15-14-15-14-15-14-15-|
---------------------------------------------------------------------------------|
---------------------------------------------------------------------------------|
---------------------------------------------------------------------------------|
   |   |   |   |   |   |   |   |




1
---------------------------------------------------------------------------------|
---------------------------------------------------------------------------------|
---------------------------------------------------------------------------------|
-----------------__--------------------------------------------------------------|
----------------/  \-------------------------------------------------------------|
-/8----------7-8/10\8-7-------5-7-0----------------------------------------------|

2
---------------------------------------------------------------------------------|
-----------------------------------^-----^-----^-----^-----^-----^-----^-----^---|
-15--15--15--15--15--15--15--15--14-15-14-15-14-15-14-15-14-15-14-15-14-15-14-15-|
---------------------------------------------------------------------------------|
---------------------------------------------------------------------------------|
---------------------------------------------------------------------------------|
   |   |   |   |   |   |   |   |





1
---------------------------------------------------------------------------------|
---------------------------------------------------------------------------------|
----------------------------------10-10-10-9-9-9-7-7-7--7------------------------|
-----------------------------------x--x--x-x-x-x-x-x-x--x------------------------|
-----------------------------------8--8--8\7-7-7\5-5-5--5------------------------|
-/8-------7-8-7--1----------1-3-0------------------------------------------------|

2
---------------------------------------------------------------------------------|
-----------------------------------^-----^-----^-----^-----^-----^-----^-----^---|
-15--15--15--15--15--15--15--15--14-15-14-15-14-15-14-15-14-15-14-15-14-15-14-15-|
---------------------------------------------------------------------------------|
---------------------------------------------------------------------------------|
---------------------------------------------------------------------------------|
   |   |   |   |   |   |   |   |




1
------------------------------------------------|
------------------------------------------------|
------------------------------------------------|
-----------------__-----------------------------|
----------------/  \----------------------------|
-/8----------7-8/10\8-7-------7-8-12--10--8--7--|

2
------------------------------------------------|
------------------------------------------------|
-15--15--15--15--15--15--15--15-----------------|
------------------------------------------------|
----------------------------------5--7--8--7----|
------------------------------------------------|
   |   |   |   |   |   |   |   |







0:44


--------------------------------------------------------------------|
--------------------------------------------------------------------|
--------------------------------------------------------------------|
--------------------------------------------------------------------|
------------8---------------8----------5----------------------------|
-8-8-8--8-8-8\---8-8-8--8-8-8\---6-5-6---6-5-3-5-8-7-6-5-4-3-1-1-0--|
 * * *  * *      * * *  * *



------------------------------------------------------------|
------------------------------------------------------------|
---------------------7-5-5-8----------------------5-7-7-5---|
--^---------^--------x-x-x-x---^---------^--------x-x-x-x---|
-1-0-0--0--1-0-0--0--5\3-3/6--1-0-0--0--1-0-0--0--3/5-5\3---|
-1-0-0--0--1-0-0--0-----------1-0-0--0--1-0-0--0------------|
      |  |      |  |               |  |      |  |

------------------------------------------------------------|
------------------------------------------------------------|
---------------------7-5-5-8----------------------5-7-7-5---|
--^---------^--------x-x-x-x---^---------^--------x-x-x-x---|
-1-0-0--0--1-0-0--0--5\3-3/6--1-0-0--0--1-0-0--0--3/5-5\3---|
-1-0-0--0--1-0-0--0-----------1-0-0--0--1-0-0--0------------|
      |  |      |  |               |  |      |  |




1:10


----------------------------------------------------------------|
----------------------------------------------------------------|
------------------------7-5-5-8------------------------5-7-7-5--|
--^---------------------x-x-x-x---^--------------------x-x-x-x--|
-1-0-0--0---------------5\3-3/6--1-0-0--0--------------3/5-5\3--|
-1-0-0--0--/8-7~-0-1-3-----------1-0-0--0--/8-7~-0-1-3----------|
      |  |                            |  |

----------------------------------------------------------------|
----------------------------------------------------------------|
------------------------7-5-5-8------------------------5-7-7-5--|
--^---------------------x-x-x-x---^--------------------x-x-x-x--|
-1-0-0--0---------------5\3-3/6--1-0-0--0--------------3/5-5\3--|
-1-0-0--0--/8-7~-0-1-3-----------1-0-0--0--/8-7~-0-1-3----------|
      |  |                            |  |




1:20


1
-----------------------------------------------------------|
-----------------------------------------------------------|
--15-----14-15-14-8-----8-10-7----10-10--9--9---7-7--7--7--|
---x------x--x--x-x-----x-x--x-----x--x--x--x---x-x--x--x--|
-/13-----12/13-12-6-----6/8--5-----8--8--7--7---5-5--5--5--|
-----------------------------------------------------------|
                                       \     \
2
-----------------------------------------------------------|
-----------------------------------------------------------|
--15-----14-15-14-8-----8-10-7-----------------------------|
---x------x--x--x-x-----x-x--x----12-12-10-10---7-7--7--7--|
-/13-----12/13-12-6-----6/8--5-----8--8--7--7---5-5--5--5--|
-----------------------------------------------------------|
                                       \     \

1
------------------__--------------------------------------------|
-----------------/  \-------------------------------------------|
--15-----14-15-15-17-15-12---10-12-7---10-10--9--9---7-7--7--7--|
---x------x--x--x--x--x--x----x--x-x----x--x--x--x---x-x--x--x--|
-/13-----12/13-13/15\13-10----8/10-5----8--8--7--7---5-5--5--5--|
----------------------------------------------------------------|
                                            \     \
2
------------------__---------------------------------------------|
-----------------/  \--------------------------------------------|
--15-----14-15-15-17-15-12----10-12-7----------------------------|
---x------x--x--x--x--x--x-----x--x-x---12-12-10-10---7-7--7--7--|
-/13-----12/13-13-15\13-10-----8/10-5----8--8--7--7---5-5--5--5--|
-----------------------------------------------------------------|
                                             \     \





1
-----------------------------------------------------------|
-----------------------------------------------------------|
--15-----14-15-14-8-----8-10-7----10-10--9--9---7-7--7--7--|
---x------x--x--x-x-----x-x--x-----x--x--x--x---x-x--x--x--|
-/13-----12/13-12-6-----6/8--5-----8--8--7--7---5-5--5--5--|
-----------------------------------------------------------|
                                       \     \
2
-----------------------------------------------------------|
-----------------------------------------------------------|
--15-----14-15-14-8-----8-10-7-----------------------------|
---x------x--x--x-x-----x-x--x----12-12-10-10---7-7--7--7--|
-/13-----12/13-12-6-----6/8--5-----8--8--7--7---5-5--5--5--|
-----------------------------------------------------------|
                                       \     \

1
------------------__--------------------------------------------|
-----------------/  \-------------------------------------------|
--15-----14-15-15-17-15-12---10-12-7---10-10--9--9---7-7--7--7--|
---x------x--x--x--x--x--x----x--x-x----x--x--x--x---x-x--x--x--|
-/13-----12/13-13/15\13-10----8/10-5----8--8--7--7---5-5--5--5--|
----------------------------------------------------------------|
                                            \     \
2
------------------__---------------------------------------------|
-----------------/  \--------------------------------------------|
--15-----14-15-15-17-15-12----10-12-7----------------------------|
---x------x--x--x--x--x--x-----x--x-x---12-12-10-10---7-7--7--7--|
-/13-----12/13-13-15\13-10-----8/10-5----8--8--7--7---5-5--5--5--|
-----------------------------------------------------------------|
                                             \     \







1:44


---------------------------------|
---------------------------------|
------------------------7-5-5-8--|
------------------------x-x-x-x--|
-1-0-0--0---------------5\3-3/6--|
-1-0-0--0--/8-7~-0-1-3-----------|
      |  |                          


---------------------------------------------------------------|
---------------------------------------------------------------|
-----------------------5-7-7-5-----------------------7-5-5-8---|
--^----------^---------x-x-x-x---^---------^---------x-x-x-x---|
-1-0-0--0---1-0-0--0---3/5-5\3--1-0-0--0--1-0-0--0---5\3-3/6---|
-1-0-0--0---1-0-0--0------------1-0-0--0--1-0-0--0-------------|
      |  |       |  |                |  |      |  |


---------------------------------------------------------------|
---------------------------------------------------------------|
-----------------------5-7-7-5------------------------7-5-5-8--|
--^----------^---------x-x-x-x---^--------------------x-x-x-x--|
-1-0-0--0---1-0-0--0---3/5-5\3--1-0-0--0--------------5\3-3/6--|
-1-0-0--0---1-0-0--0------------1-0-0--0--/8-7~-0-1-3----------|
      |  |       |  |                |  |    


----------------------------------------------------------------|
----------------------------------------------------------------|
------------------------5-7-7-5-------------------------7-5-5-8-|
--^---------------------x-x-x-x---^---------------------x-x-x-x-|
-1-0-0--0---------------3/5-5\3--1-0-0--0---------------5\3-3/6-|
-1-0-0--0--/8-7~-0-1-3-----------1-0-0--0--/8-7~-0-1-3----------|
      |  |                            |  |
                                      

---------------------------------|
---------------------------------|
------------------------5-7-7-5--|
--^---------------------x-x-x-x--|
-1-0-0--0---------------3/5-5\3--|
-1-0-0--0--/8-7~-0-1-3-----------|
      |  |          




2:08




1
-----------------------------------------------------------|
-----------------------------------------------------------|
--15-----14-15-14-8-----8-10-7----10-10--9--9---7-7--7--7--|
---x------x--x--x-x-----x-x--x-----x--x--x--x---x-x--x--x--|
-/13-----12/13-12-6-----6/8--5-----8--8--7--7---5-5--5--5--|
-----------------------------------------------------------|
                                       \     \
2
-----------------------------------------------------------|
-----------------------------------------------------------|
--15-----14-15-14-8-----8-10-7-----------------------------|
---x------x--x--x-x-----x-x--x----12-12-10-10---7-7--7--7--|
-/13-----12/13-12-6-----6/8--5-----8--8--7--7---5-5--5--5--|
-----------------------------------------------------------|
                                       \     \

1
------------------__--------------------------------------------|
-----------------/  \-------------------------------------------|
--15-----14-15-15-17-15-12---10-12-7---10-10--9--9---7-7--7--7--|
---x------x--x--x--x--x--x----x--x-x----x--x--x--x---x-x--x--x--|
-/13-----12/13-13/15\13-10----8/10-5----8--8--7--7---5-5--5--5--|
----------------------------------------------------------------|
                                            \     \
2
------------------__---------------------------------------------|
-----------------/  \--------------------------------------------|
--15-----14-15-15-17-15-12----10-12-7----------------------------|
---x------x--x--x--x--x--x-----x--x-x---12-12-10-10---7-7--7--7--|
-/13-----12/13-13-15\13-10-----8/10-5----8--8--7--7---5-5--5--5--|
-----------------------------------------------------------------|
                                             \     \





2:30




------------------------------------------------------------|
------------------------------------------------------------|
------------------------------------------------------------|
------------------------------------------------------------|
-------5----------------------------------------------------|
-6-5-6---6-5-3-5-8-7-6-5-4-3-1-1-0---5-5-4-4---0---5-5-7-4--|


------------------------------------------------------------|
------------------------------------------------------------|
------------------------------------------------------------|
------------------------------------------------------------|
-------5----------------------------------------------------|
-6-5-6---6-5-3-5-8-7-6-5-4-3-1-1-0---5-5-4-4---0---5-5-7-4--|






2:43

1
----------------------------------------------------------------|
----------------------------------------------------------------|
------------------------7-5-5-8------------------------5-7-7-5--|
------------------------x-x-x-x------------------------x-x-x-x--|
-1-0-0--0---------------5\3-3/6--1-0-0--0--------------3/5-5\3--|
-1-0-0--0--/8-7~-0-1-3-----------1-0-0--0--/8-7~-0-1-3----------|
      |  |                            |  |
2
-------------------------------------H--------------------------|
-----------------------------------///--------------------------|
-----------------------------------[2]-/------------------------|
----------------------------------------------------------------|
----------------------------------------------------------------|
----------------------------------------------------------------|

1
----------------------------------------------------------------|
----------------------------------------------------------------|
------------------------7-5-5-8------------------------5-7-7-5--|
------------------------x-x-x-x------------------------x-x-x-x--|
-1-0-0--0---------------5\3-3/6--1-0-0--0--------------3/5-5\3--|
-1-0-0--0--/8-7~-0-1-3-----------1-0-0--0--/8-7~-0-1-3----------|
      |  |                            |  |
2
----------------------------------------------------------------|
-///--------///----------------///------///-///-///-///---------|
/15----------14----------------17--------15--17--14--15---------|
----------------------------------------------------------------|
----------------------------------------------------------------|
----------------------------------------------------------------|


1
----------------------------------------------------------------|
----------------------------------------------------------------|
------------------------7-5-5-8------------------------5-7-7-5--|
------------------------x-x-x-x------------------------x-x-x-x--|
-1-0-0--0---------------5\3-3/6--1-0-0--0--------------3/5-5\3--|
-1-0-0--0--/8-7~-0-1-3-----------1-0-0--0--/8-7~-0-1-3----------|
      |  |                            |  |
2
----------------------------------------------------------------|
-///--------///-------------///-------------///-----------------|
-7-----------9---------------10-------------12------[12]~~---\--|
----------------------------------------------------------------|
----------------------------------------------------------------|
----------------------------------------------------------------|








3:00


SOLO __________________________       _____
    /                          \     /     \      __________
--10-11-10-11-13-11-10-11-10-------10-11-10------/          \-----------|
/----------------------------13-11----------13-10-11-10------------^----|
--------------------------------------------------------12-10----10-12--|
--------------------------------------------------------------13--------|
------------------------------------------------------------------------|
------------------------------------------------------------------------|

    __________
---/          \-----------------------------------------------------------------|
-10-11-10------------_____-------_____--------15--15/17---17\15--15----13/15-15-|
----------12-10-----/     \-----/     \-----------------------------------------|
---------------13-12-13-12----12-13-15-13-12----12-----14------12---10----------|
---------------------------13---------------------------------------------------|
--------------------------------------------------------------------------------|

  
            ________       _______________      _____       ______________________
           /        \     /               \    /     \     /                      \    ^
10------10-12-13-12-10-12-13-15-13-12--------12-13-15-12/17-15-13-15-13--------------13-15-|
--13--13-----------------------------15-13-15--------------------------17-15-13-15-17------|
----12-------------------------------------------------------------------------------------|
-------------------------------------------------------------------------------------------|
-------------------------------------------------------------------------------------------|
-------------------------------------------------------------------------------------------|
                            _____
                           /     \
17/18-17--15-15\13-13\12-12-13-12-10-------------|
-------------------------------------13/15-15~---|
-------------------------------------------------|
-------------------------------------------------|
-------------------------------------------------|
-------------------------------------------------|


rythm during solo
-----------------------------------------------------|
-----------------------------------------------------|
-------------------------10-10-10-9--9-9-7--7-7--7---|
--------------------------x--x--x-x--x-x-x--x-x--x---|
--8----7-8-7--1----1-3-0--8--8--8\7--7-7\5--5-5--5---|
-/8----7-8-7--1----1-3-0-----------------------------|


----------------------------------------------------------|
----------------------------------------------------------|
------------------------------10-10-10-12-12-12-7-7-7--7--|
-------------------------------x--x--x--x--x--x-x-x-x--x--|
--8----7-8-8-10-8-7----5-7-0---8--8--8/10-10-10\5-5-5--5--|
-/8----7-8-8/10\8-7----5-7-0------------------------------|







3:13


1
-----------------------------------------------------|
-----------------------------------------------------|
-------------------------10-10-10-9--9-9-7--7-7--7---|
--------------------------x--x--x-x--x-x-x--x-x--x---|
--8----7-8-7--1----1-3-0--8--8--8\7--7-7\5--5-5--5---|
-/8----7-8-7--1----1-3-0-----------------------------|

2
-----------------------------------------------------|
--------^-----------^--------------------------------|
-/15--14-15-14-8---8-10-7-------------------------5/-|
-----------------------------------------------------|
-----------------------------------------------------|
-----------------------------------------------------|


1
----------------------------------------------------------|
----------------------------------------------------------|
------------------------------10-10-10-12-12-12-7-7-7--7--|
-------------------------------x--x--x--x--x--x-x-x-x--x--|
--8----7-8-8-10-8-7----5-7-0---8--8--8/10-10-10\5-5-5--5--|
-/8----7-8-8/10\8-7----5-7-0------------------------------|

2
----------------------------------------------------------|
----------------------------------------------------------|
-15---14-15-15/17\15-12~-----14/15-14---------------------|
----------------------------------------------------------|
----------------------------------------------------------|
----------------------------------------------------------|




3:25

1
-----------------------------------------------------|
-----------------------------------------------------|
-------------------------10-10-10-9--9-9-7--7-7--7---|
--------------------------x--x--x-x--x-x-x--x-x--x---|
--8----7-8-7--1----1-3-0--8--8--8\7--7-7\5--5-5--5---|
-/8----7-8-7--1----1-3-0-----------------------------|

2
-----------------------------------------------------|
-----------------------------------------------------|
///--/////////----///----------------///--///--///---|
-8----7-8-10-------12-----------------15---14--12----|
-----------------------------------------------------|
-----------------------------------------------------|


1
----------------------------------------------------------------|
----------------------------------------------------------------|
------------------------------10-10-10-12-12-12-14-14-14-15-14--|
-------------------------------x--x--x--x--x--x--x--x--x--x--x--|
--8----7-8-8-10-8-7----5-7-0---8--8--8/10-10-10/12-12-12/13-12--|
-/8----7-8-8/10\8-7----5-7-0------------------------------------|

2                                        tr~~~
----------------------------------------1718--------------------------|
-///-///-------///----------------------------------------------------|
-----------///-14-----------14~~-------------14-17-15-14-15-14--------|
-17---14---15-------------------------------------------------17-\----|
----------------------------------------------------------------------|
----------------------------------------------------------------------|





3:36




----------------------------------------------------------------|
----------------------------------------------------------------|
------------------------7-5-5-8------------------------5-7-7-5--|
--^---------------------x-x-x-x---^--------------------x-x-x-x--|
-1-0-0--0---------------5\3-3/6--1-0-0--0--------------3/5-5\3--|
-1-0-0--0--/8-7~-0-1-3-----------1-0-0--0--/8-7~-0-1-3----------|
      |  |                            |  |



---------------------------------------------------------------|
---------------------------------------------------------------|
-----------------------7-5-5-8------------------------5-7-7-5--|
--^----------^---------x-x-x-x---^----------^---------x-x-x-x--|
-1-0-0--0---1-0-0--0---5\3-3/6--1-0-0--0---1-0-0--0---3/5-5\3--|
-1-0-0--0---1-0-0--0------------1-0-0--0---1-0-0--0------------|
    
  
---------------------------------------------------------------|
---------------------------------------------------------------|
-----------------------7-5-5-8------------------------5-7-7-5--|
--^----------^---------x-x-x-x---^----------^---------x-x-x-x--|
-1-0-0--0---1-0-0--0---5\3-3/6--1-0-0--0---1-0-0--0---3/5-5\3--|
-1-0-0--0---1-0-0--0------------1-0-0--0---1-0-0--0------------|
      




------------------------------------------------------------------|
------------------------------------------------------------------|
-------------------------7-5-5-8-------------------------5-7-7-5--|
--^-----------^----------x-x-x-x--^-----------^----------x-x-x-x--|
-1-0-0-0-0-0-1-0-0-0-0-0-5\3-3/6-1-0-0-0-0-0-1-0-0-0-0-0-3/5-5\3--|
-1-0-0-0-0-0-1-0-0-0-0-0---------1-0-0-0-0-0-1-0-0-0-0-0----------|

     * * * *     * * * *             * * * *     * * * * 

------------------------------------------------------------------|
------------------------------------------------------------------|
-------------------------7-5-5-8-------------------------5-7-7-5--|
--^-----------^----------x-x-x-x--^-----------^----------x-x-x-x--|
-1-0-0-0-0-0-1-0-0-0-0-0-5\3-3/6-1-0-0-0-0-0-1-0-0-0-0-0-3/5-5\3--|
-1-0-0-0-0-0-1-0-0-0-0-0---------1-0-0-0-0-0-1-0-0-0-0-0----------|

     * * * *     * * * *             * * * *     * * * * 









\\\\\\\\\\\\\\\\\\\\\\\\\\\\\\\\\\\\\\\\\\\\\\\\\\\\\\\\\\\\\
\\\\\\\\\\\\\\\\\\\\\\\\\\\\\\\\\\\\\\\\\\\\\\\\\\\\\\\\\\\\\\
\\\\\\\\\\\\\\\\\\\\\\\\\\\\\\\\\\\\\\\\\\\\\\\\\\\\\\\\\\\\\\
\\\\\\\\\\\\\\\\\\\\\\\\\\\\\\\\\\\\\\\\\\\\\\\\\\\\\\\\\\\\\\











SLIPKNOT

CUSTER

B-F#-B-E-G#-C#


TABBED BY andherembrace



video reference

https://drive.google.com/file/d/0B1AHRImLJJTYUW53N3FGYTVVakk/view?usp=sharing




L
-------------------------------------------------------------------|
-------------------------------------------------------------------|
-------------------------------------------------------------------|
-------------------------------------------------------------------|
----1----1----1-1-1----1----1----1-1-1-----^------^------^---^-----|
-00-1-00-1-00-1-1-1-00-1-00-1-00-1-1-1-00-4-3-00-4-3-00-4-3-0-1-0--|
 **   **   **       **   **   **       **     **     ** 
R    
-------------------------------------------------------------------|
-------------------------------------------------------------------|
-------------------------------------------------------------------|
-------------------------------------------------------------------|
----1----1----1-1-1----1----1----1-1-1----1------------------------|
-00-1-00-1-00-1-1-1-00-1-00-1-00-1-1-1-00-1------------------------|
 **   **   **       **   **   **       **  |    


L
-----------------------------------------------------------------------------------|
-----------------------------------------------------------------------------------|
-----------------------------------------------------------------------------------|
-----------------------------------------------------------------------------------|
------^------^------^---^--------^------^------^---^--------^------^------^---^----|
--00-4-3-00-4-3-00-4-3-0-1-0-00-4-3-00-4-3-00-4-3-0-1-0-00-4-3-00-4-3-00-4-3-0-1-0-|
  **     **     **           **     **     **           **     **     ** 
R
-----------------------------------------------------------------------------------|
-----------------------------------------------------------------------------------|
-----------------------------------------------------------------------------------|
-----------------------------------------------------------------------------------|
--------------------------------0-----0--------------------0------0----------------|
--------------------------------0-----0--------------------0------0----------------|
                                  |     |                    |      |




B
---------------------------------------------------------|
---------------------------------------------------------|
---------------------------------------------------------|
---------------------------------------------------------|
------^------^------^---^--------^------^------^---^-----|
--00-4-3-00-4-3-00-4-3-0-1-0-00-4-3-00-4-3-00-4-3-0-1-0--|
  **     **     **           **     **     **          

---------------------------------------------------------|
---------------------------------------------------------|
---------------------------------------------------------|
---------------------------------------------------------|
------^------^------^---^--------^------^------^---^-----|
--00-4-3-00-4-3-00-4-3-0-1-0-00-4-3-00-4-3-00-4-3-0-1-0--|
  **     **     **           **     **     **          
---------------------------------------------------------|
---------------------------------------------------------|
---------------------------------------------------------|
---------------------------------------------------------|
------^------^------^---^--------^------^------^---^-----|
--00-4-3-00-4-3-00-4-3-0-1-0-00-4-3-00-4-3-00-4-3-0-1-0--|
  **     **     **           **     **     **          

-----------------------------------------------------------|
-----------------------------------------------------------|
-----------------------------------------------------------|
-----------------------------------------------------------|
------^------^------^---^--------^------^------^---^-------|
--00-4-3-00-4-3-00-4-3-0-1-0-00-4-3-00-4-3-00-4-3-0-1-0-00-|
  **     **     **           **     **     **           **


L
----------------------------------------------------------------------------|
----------------------------------------------------------------------------|
----------------------------------------------------------------------------|
-0--------------------------------------------------------------------------|
-0--------------------------------------------------------------------------|
-0--------------------------------------------------------------------------|

R
----------------------------------------------------------------------------|
-3--------------------------------------------------------------------------|
-2--------------------------------------------------------------------------|
-0--------------------------------------------------------------------------|
-0--------------------------------------------------------------------------|
-0--------------------------------------------------------------------------|







0:54


L W/trem effect
-----------------------------------------------------------------|
-----------------------------------------------------------------|
-----------------------------------------------------------------|
///------///-------------///--///--///------///------------///---|
-6--------5---------------6----5----8--------6--------------8----|
-----------------------------------------------------------------|
L
-----------------------------------------------------------------|
-----------------------------------------------------------------|
-----------------------------------------------------------------|
///------///-------------///--///--///------///------------///---|
-6--------5---------------6----5----8--------6--------------8----|
-----------------------------------------------------------------|



1:09

L
-----------------------------------------------------------------|
-----------------------------------------------------------------|
-----------------------------------------------------------------|
///------///-------------///--///--///------///------------///---|
-6--------5---------------6----5----8--------6--------------8----|
-----------------------------------------------------------------|

R
-----------------------------------------------------------------|
-----------------------------------------------------------------|
-----------------------------------------------------------------|
///------///-------------///--///--///------///------------///---|
-6--------5---------------6----5----8--------6--------------8----|
-----------------------------------------------------------------|



L
-----------------------------------------------------------------|
-----------------------------------------------------------------|
-----------------------------------------------------------------|
///------///-------------///--///--///------///------------------|
-6--------5---------------6----5----8--------6-------------------|
---------------------------------------------------------/-------|

R
-----------------------------------------------------------------|
-----------------------------------------------------------------|
-----------------------------------------------------------------|
///------///-------------///--///--///------///------------------|
-6--------5---------------6----5----8--------6-------------------|
-----------------------------------------------------------------|

R2
-----------------------------------------------------------------|
-----------------------------------------------------------------|
///------///-------------///--///--///------///------------------|
-13------12--------------13----12---15-------13------------------|
-----------------------------------------------------------------|
-----------------------------------------------------------------|





1:24

L
----------------------------------------------|
----------------------------------------------|
----------------------------------------------|
----------------------------------------------|
----------------------------------------------|
-13-00-13-00-13-13-13-00-13-00-13-00-13-13-13-|
    **    **          **    **    **  


B
---------------------------------------------------------|
---------------------------------------------------------|
---------------------------------------------------------|
---------------------------------------------------------|
------^------^------^---^--------^------^------^---^-----|
--00-4-3-00-4-3-00-4-3-0-1-0-00-4-3-00-4-3-00-4-3-0-1-0--|
  **     **     **           **     **     **          

---------------------------------------------------------|
---------------------------------------------------------|
---------------------------------------------------------|
---------------------------------------------------------|
------^------^------^---^--------^------^------^---^-----|
--00-4-3-00-4-3-00-4-3-0-1-0-00-4-3-00-4-3-00-4-3-0-1-0--|
  **     **     **           **     **     **          
---------------------------------------------------------|
---------------------------------------------------------|
---------------------------------------------------------|
---------------------------------------------------------|
------^------^------^---^--------^------^------^---^-----|
--00-4-3-00-4-3-00-4-3-0-1-0-00-4-3-00-4-3-00-4-3-0-1-0--|
  **     **     **           **     **     **          

-----------------------------------------------------------|
-----------------------------------------------------------|
-----------------------------------------------------------|
-----------------------------------------------------------|
------^------^------^---^--------^------^------^---^-------|
--00-4-3-00-4-3-00-4-3-0-1-0-00-4-3-00-4-3-00-4-3-0-1-0-00-|
  **     **     **           **     **     **           **


-----------------------------------------------------------|
-----------------------------------------------------------|
-----------------------------------------------------------|
-----------------------------------------------------------|
------^------^------^---^--------^------^------^---^-------|
--00-4-3-00-4-3-00-4-3-0-1-0-00-4-3-00-4-3-00-4-3-0-1-0-00-|
  **     **     **           **     **     **           **






1:46




L
----------------------------------------------------------------|
-----------)(--------------------------)()(---------------------|
----------7-----14--8-7---------------7-------------------------|
----------x------x--x-x---------------x-------------------------|
----/8-7--5----/12--6-5---)(----------5-------------------------|
-0-----------------------7---0--/7-6----------7-6--0-1-3-1-0-1--|
                                                   * * * * * *

R
----------------------------------------------------------------|
----------------------------------------------------------------|
----------------------------------------------------------------|
-----------)(--------------------------)()(---------------------|
----------5----/12--6-5---)(----------5-------------------------|
-0--/8-7-----------------7---0--/7-6----------7-6--0-1-3-1-0-1--|
                                                   * * * * * *



L
-----------------------------------------------------------------|
-----------)(--------------------------)()(----------------------|
----------7-----14--8-7---------------7--------------------------|
----------x------x--x-x---------------x--------------------------|
----/8-7--5----/12--6-5---)(----------5------------------------0-|
-0-----------------------7---0--/7-6----------7-6--0-1-3-1-0-1-0-|
                                                   * * * * * *
R
--------------------------------------------------------------------|
--------------------------------------------------------------------|
--------------------------------------------------------------------|
-----------)(--------------------------)()(--------------------0----|
----------5----/12--6-5---)(----------5------------------------0----|
-0--/8-7-----------------7---0--/7-6----------7-6--0-1-3-1-0-1-0----|
                                                   * * * * * *






2:08



------------------------------------------------------------------|
------------------------------------------------------------------|
------------------------------------------------------------------|
------------------------------------------------------------------|
------------------------------------------------------------------|
-1-1-1-1-0-0-0-0-0-0-0-0-1-1-0-0-3-3-3-3-1-1-1-1-1-1-1-1-1-1-3-3--|
 * * * * * * * * * * * * * * * * * * * * * * * * * * * * * * * * 


------------------------------------------------------------------|
------------------------------------------------------------------|
------------------------------------------------------------------|
------------------------------------------------------------------|
------------------------------------------------------------------|
-1-1-1-1-0-0-0-0-0-0-0-0-1-1-0-0-3-3-3-3-1-1-1-1-1-1-1-1-1-1-3-3--|
 * * * * * * * * * * * * * * * * * * * * * * * * * * * * * * * * 



-------------------------------------------------------------------|
-------------------------------------------------------------------|
///------///-------------///--///--///------///---------------///--|
-13------12--------------13----12---15-------13---------------15---|
-------------------------------------------------------------------|
-------------------------------------------------------------------|


-----------------------------------------------------------------|
-----------------------------------------------------------------|
///------///-------------///--///--///------///------------------|
-13------12--------------13----12---15-------13------------------|
-----------------------------------------------------------------|
-----------------------------------------------------------------|








2:36


L
----------------------------------------------|
----------------------------------------------|
----------------------------------------------|
----------------------------------------------|
----------------------------------------------|
-13-00-13-00-13-13-13-00-13-00-13-00-13-13-13-|
    **    **          **    **    **  


B
---------------------------------------------------------|
---------------------------------------------------------|
---------------------------------------------------------|
---------------------------------------------------------|
------^------^------^---^--------^------^------^---^-----|
--00-4-3-00-4-3-00-4-3-0-1-0-00-4-3-00-4-3-00-4-3-0-1-0--|
  **     **     **           **     **     **          

---------------------------------------------------------|
---------------------------------------------------------|
---------------------------------------------------------|
---------------------------------------------------------|
------^------^------^---^--------^------^------^---^-----|
--00-4-3-00-4-3-00-4-3-0-1-0-00-4-3-00-4-3-00-4-3-0-1-0--|
  **     **     **           **     **     **          
---------------------------------------------------------|
---------------------------------------------------------|
---------------------------------------------------------|
---------------------------------------------------------|
------^------^------^---^--------^------^------^---^-----|
--00-4-3-00-4-3-00-4-3-0-1-0-00-4-3-00-4-3-00-4-3-0-1-0--|
  **     **     **           **     **     **          

-----------------------------------------------------------|
-----------------------------------------------------------|
-----------------------------------------------------------|
-----------------------------------------------------------|
------^------^------^---^--------^------^------^---^-------|
--00-4-3-00-4-3-00-4-3-0-1-0-00-4-3-00-4-3-00-4-3-0-1-0-00-|
  **     **     **           **     **     **           **


-----------------------------------------------------------|
-----------------------------------------------------------|
-----------------------------------------------------------|
-----------------------------------------------------------|
------^------^------^---^--------^------^------^---^-------|
--00-4-3-00-4-3-00-4-3-0-1-0-00-4-3-00-4-3-00-4-3-0-1-0-00-|
  **     **     **           **     **     **           **



L
----------------------------------------------------------------|
-----------)(--------------------------)()(---------------------|
----------7-----14--8-7---------------7-------------------------|
----------x------x--x-x---------------x-------------------------|
----/8-7--5----/12--6-5---)(----------5-------------------------|
-0-----------------------7---0--/7-6----------7-6--0-1-3-1-0-1--|
                                                   * * * * * *
R
----------------------------------------------------------------|
----------------------------------------------------------------|
----------------------------------------------------------------|
-----------)(--------------------------)()(---------------------|
----------5----/12--6-5---)(----------5-------------------------|
-0--/8-7-----------------7---0--/7-6----------7-6--0-1-3-1-0-1--|
                                                   * * * * * *

L
----------------------------------------------------------------|
-----------)(--------------------------)()(---------------------|
----------7-----14--8-7---------------7-------------------------|
----------x------x--x-x---------------x-------------------------|
----/8-7--5----/12--6-5---)(----------5-------------------------|
-0-----------------------7---0--/7-6----------7-6--0-1-3-1-0-1--|
                                                   * * * * * *

R
----------------------------------------------------------------|
----------------------------------------------------------------|
----------------------------------------------------------------|
-----------)(--------------------------)()(---------------------|
----------5----/12--6-5---)(----------5-------------------------|
-0--/8-7-----------------7---0--/7-6----------7-6--0-1-3-1-0-1--|
                                                   * * * * * *






L
----------------------------------------------------------------|
-----------)(--------------------------)()(---------------------|
----------7-----14--8-7---------------7-------------------------|
----------x------x--x-x----)(---------x-------------------------|
----/8-7--5----/12--6-5---7-----------5-------------------------|
-0---------------------------0--/7-6----------7-6--0-1-3-1-0-1--|
                                                   * * * * * *
R
----------------------------------------------------------------|
----------------------------------------------------------------|
----------------------------------------------------------------|
-----------)(--------------------------)()(---------------------|
----------5----/12--6-5---)(----------5-------------------------|
-0--/8-7-----------------7---0--/7-6----------7-6--0-1-3-1-0-1--|
                                                   * * * * * *



L
----------------------------------------------------------------|
-----------)(--------------------------)()(---------------------|
----------7-----14--8-7---------------7-------------------------|
----------x------x--x-x----)(---------x-------------------------|
----/8-7--5----/12--6-5---7-----------5-------------------------|
-0---------------------------0--/7-6----------7-6--0-1-3-1-0-1--|
                                                   * * * * * *

R
----------------------------------------------------------------|
----------------------------------------------------------------|
----------------------------------------------------------------|
-----------)(--------------------------)()(---------------------|
----------5----/12--6-5---)(----------5-------------------------|
-0--/8-7-----------------7---0--/7-6----------7-6--0-1-3-1-0-1--|
                                                   * * * * * *







3:28



---------------------------------------------------|
---------------------------------------------------|
---------------------------------------------------|
---------------------------------------------------|
-----)(--------------------)(------------------)(--|
-0--1------0-1-3-1-0-1-0--5----0-1-3-1-0-1-0--1----|
           * * * * * *         * * * * * *      

----------------------------------------------|
----------------------------------------------|
----------------------------------------------|
----------------------------------------------|
----------------------------------------------|
-0-1-3-1-0-1-3-1-0-1-3-1-0-1-3-1-0-1-3-1-0-1--|
 * * * * * * * * * * * * * * * * * * * * * *


---------------------------------------------------|
---------------------------------------------------|
---------------------------------------------------|
---------------------------------------------------|
---------------------------------------------------|
-0--/6-5--0-1-3-1-0-1-0--/8-7--0-1-3-1-0-1-0--/6-5-|
          * * * * * *          * * * * * *      

----------------------------------------------|
----------------------------------------------|
----------------------------------------------|
----------------------------------------------|
----------------------------------------------|
-0-1-3-1-0-1-3-1-0-1-3-1-0-1-3-1-0-1-3-1-0-1--|
 * * * * * * * * * * * * * * * * * * * * * *


-----------------------------------------------------|
-----------------------------------------------------|
-----------------------------------------------------|
-----------------------------------------------------|
-----------------------------------------------------|
-0--/6-5--0-1-3-1-0-1-0--/8-7--0-1-3-1-0-1-0--/6-5---|
          * * * * * *          * * * * * *      


--------------------------------------|
--------------------------------------|
--------------------------------------|
--------------------------------------|
-----------------------------3-6-2-5--|
-0-1-3-1-0-1-3-1-0-1-3-1-0-1-3-6-2-5--|
 * * * * * * * * * * * * * *              



3:50

B
---------------------------------------------------------|
---------------------------------------------------------|
---------------------------------------------------------|
---------------------------------------------------------|
------^------^------^---^--------^------^------^---^-----|
--00-4-3-00-4-3-00-4-3-0-1-0-00-4-3-00-4-3-00-4-3-0-1-0--|
  **     **     **           **     **     **          


L
----------------------------------------------------------------------|
----------------------------------------------------------------------|
----------------------------------------------------------------------|
----------------------------------------------------------------------|
------^------^------^---^--------^------^-----------------------------|
--00-4-3-00-4-3-00-4-3-0-1-0-00-4-3-00-4-3-00-10-10-13-13-9-9-12-12---|
  **     **     **           **     **     **  *  *  *  * * *  *  *
R 
----------------------------------------------------------------|
----------------------------------------------------------------|
----------------------------------------------------------------|
----------------------------------------------------------------|
------^------^------^---^--------^------^-----------------------|
--00-4-3-00-4-3-00-4-3-0-1-0-00-4-3-00-4-3-00-3-3-6-6-2-2-5-5---|
  **     **     **           **     **     ** * * * * * * * *      



B
---------------------------------------------------------|
---------------------------------------------------------|
---------------------------------------------------------|
---------------------------------------------------------|
------^------^------^---^--------^------^------^---^-----|
--00-4-3-00-4-3-00-4-3-0-1-0-00-4-3-00-4-3-00-4-3-0-1-0--|
  **     **     **           **     **     **          


L
----------------------------------------------------------------------|
----------------------------------------------------------------------|
----------------------------------------------------------------------|
----------------------------------------------------------------------|
------^------^------^---^--------^------^-----------------------------|
--00-4-3-00-4-3-00-4-3-0-1-0-00-4-3-00-4-3-00-10-10-13-13-9-9-12-12---|
  **     **     **           **     **     **  *  *  *  * * *  *  *
R 
----------------------------------------------------------------|
----------------------------------------------------------------|
----------------------------------------------------------------|
----------------------------------------------------------------|
------^------^------^---^--------^------^-----------------------|
--00-4-3-00-4-3-00-4-3-0-1-0-00-4-3-00-4-3-00-3-3-6-6-2-2-5-5---|
  **     **     **           **     **     ** * * * * * * * *       

B
---------------------------------------------------------|
---------------------------------------------------------|
---------------------------------------------------------|
---------------------------------------------------------|
------^------^------^---^--------^------^------^---^-----|
--00-4-3-00-4-3-00-4-3-0-1-0-00-4-3-00-4-3-00-4-3-0-1-0--|
  **     **     **           **     **     **          

---------------------------------------------------------|
---------------------------------------------------------|
---------------------------------------------------------|
---------------------------------------------------------|
------^------^------^---^--------^------^-----3-6-2-5----|
--00-4-3-00-4-3-00-4-3-0-1-0-00-4-3-00-4-3-00-3-6-2-5----|
  **     **     **           **     **     **          











\\\\\\\\\\\\\\\\\\\\\\\\\\\\\\\\\\\\\\\\\\\\\\\\\\\\\\\\\\\\\\\\\\\\\\
\\\\\\\\\\\\\\\\\\\\\\\\\\\\\\\\\\\\\\\\\\\\\\\\\\\\\\\\\\\\\\\\\\\\\\
\\\\\\\\\\\\\\\\\\\\\\\\\\\\\\\\\\\\\\\\\\\\\\\\\\\\\\\\\\\\\\\\\\\\\\
\\\\\\\\\\\\\\\\\\\\\\\\\\\\\\\\\\\\\\\\\\\\\\\\\\\\\\\\\\\\\\\\\\\\\\








SLIPKNOT

THE NEGATIVE ONE

TABBED BY andherembrace

B-F#-B-E-G#-c#

^=HAMMER ON
)(=BEND/UNBEND


-------------------------------------------------------|
-------------------------------------------------------|
-------------------------------------------------------|
----__-----__----__------------__-----__----__---------|
--^-)(---^-)(--^-)(---^------^-)(---^-)(--^-)(--^---^--|
-0-1----0-1---0-1----0-1-0--0-1----0-1---0-1---0-1-0-1-|


-------------------------------------------------------|
-------------------------------------------------------|
-------------------------------------------------------|
----__-----__----__------------__-----__---------------|
--^-)(---^-)(--^-)(---^------^-)(---^-)(--^------------|
-0-1----0-1---0-1----0-1-0--0-1----0-1---0-1-0-0-------|
                                             * *



0:36


-------------------------------------------------------|
-------------------------------------------------------|
-------------------------------------------------------|
----__-----__----__------------__-----__----__---------|
--^-)(---^-)(--^-)(---^------^-)(---^-)(--^-)(--^---^--|
-0-1----0-1---0-1----0-1-0--0-1----0-1---0-1---0-1-0-1-|


-------------------------------------------------------|
-------------------------------------------------------|
-------------------------------------------------------|
----__-----__----__------------__-----__----__---------|
--^-)(---^-)(--^-)(---^------^-)(---^-)(--^-)(--^---^--|
-0-1----0-1---0-1----0-1-0--0-1----0-1---0-1---0-1-0-1-|



-------------------------------------------------------|
-------------------------------------------------------|
-------------------------------------------------------|
----__-----__----__------------__-----__----__---------|
--^-)(---^-)(--^-)(---^------^-)(---^-)(--^-)(--^---^--|
-0-1----0-1---0-1----0-1-0--0-1----0-1---0-1---0-1-0-1-|

-------------------------------------------------------|
-------------------------------------------------------|
-------------------------------------------------------|
----__-----__----__------------__-----__----__---------|
--^-)(---^-)(--^-)(---^------^-)(---^-)(--^-)(--^---^--|
-0-1----0-1---0-1----0-1-0--0-1----0-1---0-1---0-1-0-1-|


-----------------------------------------------------------|
-----------------------------------------------------------|
-----------------------------------------------------------|
----__-----__----__------------__-----__----__-------------|
--^-)(---^-)(--^-)(---^------^-)(---^-)(--^-)(--^---^---^--|
-0-1----0-1---0-1----0-1-0--0-1----0-1---0-1---0-1-0-1-0-1-|





1:03


------------------------------------------------------------|
------------------------------------------------------------|
------------------------------------------------------------|
---^---^-----------^---^-------------------^------^---^-----|
--0-1-0-1-0---0-1-0-1-0-1-0---0-1-3/4\3-1-3-1-0-1-0-1-0-1-0-|
--0-1-0-1-0---0-1-0-1-0-1-0---0-1-3/4\3-1-3-1-0-1-0-1-0-1-0-|


---------------------------------------------------------------|
---------------------------------------------------------------|
---------------------------------------------------------------|
------^---^-----------^---^-------------------^------^---^-----|
-0-1-0-1-0-1-0---0-1-0-1-0-1-0---0-1-3/4\3-1-3-1-0-1-0-1-0-1-0-|
-0-1-0-1-0-1-0---0-1-0-1-0-1-0---0-1-3/4\3-1-3-1-0-1-0-1-0-1-0-|



L
-----------------------------------------------------------------------------------------|
-----------------------------------------------------------------------------------------|
-----------------------------------------------------------------------------------------|
--------^-----^---------------^-----^---------------------------^-----------^-----^------|
12-13-12-13-12-13-12--12-13-12-13-12-13-12--12-13-15/16\15-13-15-13-12-13-12-13-12-13-12-|
12-13-12-13-12-13-12--12-13-12-13-12-13-12--12-13-15/16\15-13-15-13-12-13-12-13-12-13-12-|


R
---------------------------------------------------------------|
---------------------------------------------------------------|
---------------------------------------------------------------|
------^---^-----------^---^-------------------^------^---^-----|
-0-1-0-1-0-1-0---0-1-0-1-0-1-0---0-1-3/4\3\1-3-1-0-1-0-1-0-1-0-|
-0-1-0-1-0-1-0---0-1-0-1-0-1-0---0-1-3/4\3\1-3-1-0-1-0-1-0-1-0-|



L

--------------------------------------------------------------------------------------------------|
--------------------------------------------------------------------------------------------------|
--------^-----^---------------^-----^---------------------------^-----------------------^---------|
12-13-12-13-12-13-12--12-13-12-13-12-13-12--12-13-15/16\15-13-15-13-12-13-15/16\15-13-15-13-12-13-|
12-13-12-13-12-13-12--12-13-12-13-12-13-12--12-13-15/16\15-13-15-13-12-13-15/16\15-13-15-13-12-13-|
12-13-12-13-12-13-12--12-13-12-13-12-13-12--12-13-15/16\15-13-15-13-12-13-15/16\15-13-15-13-12-13-|

R
-------------------------------------------------------------------------|
-------------------------------------------------------------------------|
-------------------------------------------------------------------------|
------^---^-----------^---^-------------------^---------------^----------|
-0-1-0-1-0-1-0---0-1-0-1-0-1-0---0-1-3/4\3-1-3-1-0-1-3/4\3-1-3-1-0-1-----|
-0-1-0-1-0-1-0---0-1-0-1-0-1-0---0-1-3/4\3-1-3-1-0-1-3/4\3-1-3-1-0-1-----|





1:21




--------------------------------------------------------------------|
--------------------------------------------------------------------|
-------------------------------------------8-8-8-8-8-7-7-7-7-3-3-3--|
-------------------------------------------X-X-X-X-X-X-X-X-X-x-x-x--|
----------------------------------------0--6-6-6-6-6-5-5-5-5-1-1-1--|
-6~\-0-5~--\-0-6-6-8-5~--\-0-6~-\-0-5~--0---------------------------|



--------------------------------------------------------------------|
--------------------------------------------------------------------|
-------------------------------------------8-8-8-8-8-7-7-7-7-3-3-3--|
-------------------------------------------X-X-X-X-X-X-X-X-X-x-x-x--|
----------------------------------------0--6-6-6-6-6-5-5-5-5-1-1-1--|
-6~\-0-5~--\-0-6-6-8-5~--\-0-6~-\-0-5~--0---------------------------|




L
----------------------------|
----------------------------|
----------------------------|
----------------------------|
--^---^-----------^---^-----|
-0-1-0-1-0---0-1-0-1-0-1-0--|



1:41


B
------------------------------------------------------------|
------------------------------------------------------------|
------------------------------------------------------------|
---^---^-----------^---^-------------------^-------^---^----|
--0-1-0-1-0---0-1-0-1-0-1-0---0-1-3/4\3-1-3-1-0-1-0-1-0-1-0-|
--0-1-0-1-0---0-1-0-1-0-1-0---0-1-3/4\3-1-3-1-0-1-0-1-0-1-0-|


---------------------------------------------------------------|
---------------------------------------------------------------|
---------------------------------------------------------------|
------^---^-----------^---^-------------------^-------^---^----|
-0-1-0-1-0-1-0---0-1-0-1-0-1-0---0-1-3/4\3\1-3-1-0-1-0-1-0-1-0-|
-0-1-0-1-0-1-0---0-1-0-1-0-1-0---0-1-3/4\3\1-3-1-0-1-0-1-0-1-0-|



L
-----------------------------------------------------------------------------------------|
-----------------------------------------------------------------------------------------|
-----------------------------------------------------------------------------------------|
----------------------------------------------------------------^-----------^-----^------|
12-13-12-13-12-13-12--12-13-12-13-12-13-12--12-13-15/16\15-13-15-13-12-13-12-13-12-13-12-|
12-13-12-13-12-13-12--12-13-12-13-12-13-12--12-13-15/16\15-13-15-13-12-13-12-13-12-13-12-|


R
---------------------------------------------------------------|
---------------------------------------------------------------|
---------------------------------------------------------------|
------^---^-----------^---^-------------------^-------^---^----|
-0-1-0-1-0-1-0---0-1-0-1-0-1-0---0-1-3/4\3-1-3-1-0-1-0-1-0-1-0-|
-0-1-0-1-0-1-0---0-1-0-1-0-1-0---0-1-3/4\3-1-3-1-0-1-0-1-0-1-0-|



L
--------------------------------------------------------------------------------------------------|
--------------------------------------------------------------------------------------------------|
--------------------------------------------------------------------------------------------------|
--------^-----^---------------^-----^---------------------------^-----------------------^---------|
12-13-12-13-12-13-12--12-13-12-13-12-13-12--12-13-15/16\15-13-15-13-12-13-15/16\15-13-15-13-12-13-|
12-13-12-13-12-13-12--12-13-12-13-12-13-12--12-13-15/16\15-13-15-13-12-13-15/16\15-13-15-13-12-13-|

R
-------------------------------------------------------------------------|
-------------------------------------------------------------------------|
-------------------------------------------------------------------------|
------^---^-----------^---^-------------------^---------------^----------|
-0-1-0-1-0-1-0---0-1-0-1-0-1-0---0-1-3/4\3-1-3-1-0-1-3/4\3-1-3-1-0-1-----|
-0-1-0-1-0-1-0---0-1-0-1-0-1-0---0-1-3/4\3-1-3-1-0-1-3/4\3-1-3-1-0-1-----|






1:58


--------------------------------------------------------------------|
--------------------------------------------------------------------|
-------------------------------------------8-8-8-8-8-7-7-7-7-3-3-3--|
-------------------------------------------X-X-X-X-X-X-X-X-X-x-x-x--|
----------------------------------------0--6-6-6-6-6-5-5-5-5-1-1-1--|
-6~\-0-5~--\-0-6-6-8-5~--\-0-6~-\-0-5~--0---------------------------|

--------------------------------------------------------------------|
--------------------------------------------------------------------|
-------------------------------------------8-8-8-8-8-7-7-7-7-3-3-3--|
-------------------------------------------X-X-X-X-X-X-X-X-X-x-x-x--|
----------------------------------------0--6-6-6-6-6-5-5-5-5-1-1-1--|
-6~\-0-5~--\-0-6-6-8-5~--\-0-6~-\-0-5~--0---------------------------|




L
----------------------------------------------------------------------------|
----------------------------------------------------------------------------|
----8-8-8-8-8-7-7-7-7-14-14-14-----8-8-8-8-8-7-7-7-7-17-17-17-19--17-14-14--|
----X-X-X-X-X-X-X-X-X--X--X--X-----X-X-X-X-X-X-X-X-X--X--X--X--X--X--X--X---|
-0--6-6-6-6-6-5-5-5-5-12-12-12--0--6-6-6-6-6-5-5-5-5-15-15-15-17~-15\12-12~-|
-0------------------------------0-------------------------------------------|

R
--------------------------------------------------------------------------|
--------------------------------------------------------------------------|
----8-8-8-8-8-7-7-7-7-14-14-14-----8-8-8-8-8-7-7-7-7----------------------|
----X-X-X-X-X-X-X-X-X--X--X--X-----X-X-X-X-X-X-X-X-X-10-10-10-12~-10\7-7--|
-0--6-6-6-6-6-5-5-5-5-12-12-12--0--6-6-6-6-6-5-5-5-5--X--X--X--X---X-X-X--|
-0------------------------------0--------------------10-10-10-12~-10\7-7~-|







2;23


-------------------------------------------------------------|
-------------------------------------------------------------|
---_-----7-8----8-8-8-8-7-7-7----_-----7-8---10101010-7-7-7--|
--/ \----5-6----X-X-X-X-X-X-X---/ \----5-6----X-X-X-X-X-X-X--|
-6-5-0-6-5/6----6-6-6-6-5-5-5--6-5-0-6-5/6-0--8-8-8-8-5-5-5--|
-6-5-0-6-----0-----------------6-5-0-6-----0-----------------|


----------------------------------------------------------------|
----------------------------------------------------------------|
---_-----7-8----8-8-8-8-7-7-7-----------------------------------|
--/ \----5-6----X-X-X-X-X-X-X--------------------------11111111-|
-6-5-0-6-5/6----6-6-6-6-5-5-5---------------------------X-X-X-X-|
-6-5-0-6-----0-----------------8-8-8-8-8-8-7-7-7-7-7-7-11111111-|



-------------------------------------------------------------|
-------------------------------------------------------------|
---_-----7-8----8-8-8-8-7-7-7----_-----7-8---10101010-7-7-7--|
--/ \----5-6----X-X-X-X-X-X-X---/ \----5-6----X-X-X-X-X-X-X--|
-6-5-0-6-5/6----6-6-6-6-5-5-5--6-5-0-6-5/6-0--8-8-8-8-5-5-5--|
-6-5-0-6-----0-----------------6-5-0-6-----0-----------------|


---------------------------------------------------------------|
---------------------------------------------------------------|
---_-----7-8----8-8-8-8-7-7-7----------------------------------|
--/ \----5-6----X-X-X-X-X-X-X----------------------------------|
-6-5-0-6-5/6----6-6-6-6-5-5-5----------------------------------|
-6-5-0-6-----0-----------------8-8-8-8-8-8-7-7-7-7-7-7-1-1-1-1-|






2:41


L
----------------------------------------------------|
----------------------------------------------------|
----------------------------------------------------|
----__-----__----__---------__-----__----__---------|
--^-)(---^-)(--^-)(-------^-)(---^-)(--^-)(--^---^--|
-0-1----0-1---0-1-----0--0-1----0-1---0-1---0-1-0-1-|


B
-------------------------------------------------------|
-------------------------------------------------------|
-------------------------------------------------------|
----__-----__----__------------__-----__----__---------|
--^-)(---^-)(--^-)(---^------^-)(---^-)(--^-)(--^---^--|
-0-1----0-1---0-1----0-1-0--0-1----0-1---0-1---0-1-0-1-|


-------------------------------------------------------|
-------------------------------------------------------|
-------------------------------------------------------|
----__-----__----__------------__-----__----__---------|
--^-)(---^-)(--^-)(---^------^-)(---^-)(--^-)(--^---^--|
-0-1----0-1---0-1----0-1-0--0-1----0-1---0-1---0-1-0-1-|


-------------------------------------------------------|
-------------------------------------------------------|
-------------------------------------------------------|
----__-----__----__------------__-----__----__---------|
--^-)(---^-)(--^-)(---^------^-)(---^-)(--^-)(--^---^--|
-0-1----0-1---0-1----0-1-0--0-1----0-1---0-1---0-1-0-1-|




2:58 USE 2 FINGERS

-------------------------------------------------------|
-------------------------------------------------------|
----__-----__----__------------__-----__----__---------|
--^-)(---^-)(--^-)(---^------^-)(---^-)(--^-)(--^---^--|
-0-1----0-1---0-1----0-1-0--0-1----0-1---0-1---0-1-0-1-|
-0-1----0-1---0-1----0-1-0--0-1----0-1---0-1---0-1-0-1-|



----------------------------------------------------------|
----------------------------------------------------------|
----__-----__----__------------__-----__----__------------|
--^-)(---^-)(--^-)(---^------^-)(---^-)(--^-)(--^---^---^-|
-0-1----0-1---0-1----0-1-0--0-1----0-1---0-1---0-1-0-1-0-1|
-0-1----0-1---0-1----0-1-0--0-1----0-1---0-1---0-1-0-1-0-1|






3:07

-------------------------------------------------------------------------------|
-------------------------------------------------------------------------------|
-------------------------------------------------------------------------------|
---------------_-------------------_-------------------_-------------------_---|
--------------/ \-----------------/ \-----------------/ \-----------------/ \--|
-0-1-3-4-3-1-3-1-0---0-1-3-4-3-1-3-1-0---0-1-3-4-3-1-3-1-0---0-1-3-4-3-1-3-1-0-|
 * * * * * *         * * * * * *         * * * * * *         * * * * * * 


---------------------------------------------------------------------------|
---------------------------------------------------------------------------|
---------------------------------------------------------------------------|
---------------_-------------------_-------------------_-------------------|
--------------/ \-----------------/ \-----------------/ \----------------0-|
-0-3-5-6-5-3-5-3-0---0-3-5-6-5-3-5-3-0---0-3-5-6-5-3-5-3-0---0-3-5-6-5-3-0-|
 * * * * * *         * * * * * *         * * * * * *         * * * * * * 
          

-------------------------------------------------------------------------------|
-------------------------------------------------------------------------------|
-------------------------------------------------------------------------------|
---------------_-------------------_-------------------_-------------------_---|
--------------/ \-----------------/ \-----------------/ \-----------------/ \--|
-0-1-3-4-3-1-3-1-0---0-1-3-4-3-1-3-1-0---0-1-3-4-3-1-3-1-0---0-1-3-4-3-1-3-1-0-|
 * * * * * *         * * * * * *         * * * * * *         * * * * * * 


------------------------------------------------------------------------------|
------------------------------------------------------------------------------|
------------------------------------------------------------------------------|
---------------_-------------------_-------------------_-------------------_--|
--------------/ \-----------------/ \-----------------/ \-----------------/ \-|
-0-3-5-6-5-3-5-3-0---0-3-5-6-5-3-5-3-0---0-3-5-6-5-3-5-3-0---0-3-5-6-5-3-5-3-0|
 * * * * * *         * * * * * *         * * * * * *         * * * * * * 


--------------------------------------------------------------------|
--------------------------------------------------------------------|
--------------------------------------------------------------------|
-----------------77778888-------------------------------------------|
---------66665555--------66665555-----------------------------------|
11110000--------------------------0000111133335555666655553333////--|



L
-------------------------------------------------------------------|
-------------------------------------------------------------------|
-------------------------------------------------------------------|
-----------------15151515------------------------15151515----------|
-1313131312121212--------131313131212121213131313--------13131313--|
-------------------------------------------------------------------|

R
-----------------------------------------------------------|
-----------------------------------------------------------|
-----------------------------------------------------------|
-----------------------------------------------------------|
----------------12121212------------------------12121212---|
1313131312121212--------131313131212121213131313--------13\|



------------*+1OCTAVE-----|
--------------------------|
--------------------------|
--------------------------|
-1--0--1--0--1--0--1--0---|
-1--0--1--0--1--0--1--0---|
 *  *  *  *  *  *  *  *




3:34


-----------------------------------------------------------|
-----------------------------------------------------------|
-----------------------------------------------------------|
------------------^---^--------------------------^---^-----|
-1-0-0-1-4-1-0-1-0-1-0-1-0--0-1-0-1-0-1-4-1-0-1-0-1-0-1-0--|
-1-0-0-1-4-1-0-1-0-1-0-1-0--0-1-0-1-0-1-4-1-0-1-0-1-0-1-0--|
 * * * * * * * *            * * * * * * * * * * 


---------------------------------------------------------------|
---------------------------------------------------------------|
---------------------------------------------------------------|
----------------------^---^--------------------------^---^-----|
-0-1-0-1-0-1-4-1-0-1-0-1-0-1-0--0-1-0-1-0-1-4-1-0-1-0-1-0-1-0--|
-0-1-0-1-0-1-4-1-0-1-0-1-0-1-0--0-1-0-1-0-1-4-1-0-1-0-1-0-1-0--|
 * * * * * * * * * *            * * * * * * * * * *

---------------------------------------------------------------|
---------------------------------------------------------------|
---------------------------------------------------------------|
----------------------^---^--------------------------^---^-----|
-0-1-0-1-0-1-4-1-0-1-0-1-0-1-0--0-1-0-1-0-1-4-1-0-1-0-1-0-1-0--|
-0-1-0-1-0-1-4-1-0-1-0-1-0-1-0--0-1-0-1-0-1-4-1-0-1-0-1-0-1-0--|
 * * * * * * * * * *            * * * * * * * * * *

---------------------------------------------------------------|
---------------------------------------------------------------|
---------------------------------------------------------------|
----------------------^---^--------------------------^---^-----|
-0-1-0-1-0-1-4-1-0-1-0-1-0-1-0--0-1-0-1-0-1-4-1-0-1-0-1-0-1-0--|
-0-1-0-1-0-1-4-1-0-1-0-1-0-1-0--0-1-0-1-0-1-4-1-0-1-0-1-0-1-0--|
 * * * * * * * * * *            * * * * * * * * * *



--------------------------------------------------------------|
--------------------------------------------------------------|
--------------------------------------------------------------|
----------------------^---^--------------------------^---^----|
-0-3-5-6-5-6-8-6-5-6-5-6-5-6-5--0-3-5-6-5-6-8-6-5-6-5-6-5-6-5-|
-0-3-5-6-5-6-8-6-5-6-5-6-5-6-5--0-3-5-6-5-6-8-6-5-6-5-6-5-6-5-|
 * * * * * * * * * *            * * * * * * * * * *

--------------------------------------------------------------|
--------------------------------------------------------------|
--------------------------------------------------------------|
----------------------^---^-----------------------------------|
-0-3-5-6-5-6-8-6-5-6-5-6-5-6-5--0-3-5-6-5-6-8-6-5-6-5-6-5-6-5-|
-0-3-5-6-5-6-8-6-5-6-5-6-5-6-5--0-3-5-6-5-6-8-6-5-6-5-6-5-6-5-|
 * * * * * * * * * *            * * * * * * * * * * * * * *





4:00

--------------------------------------------------------------------|
--------------------------------------------------------------------|
-------------------------------------------8-8-8-8-8-7-7-7-7-3-3-3--|
-------------------------------------------X-X-X-X-X-X-X-X-X-x-x-x--|
----------------------------------------0--6-6-6-6-6-5-5-5-5-1-1-1--|
-6~\-0-5~--\-0-6-6-8-5~--\-0-6~-\-0-5~--0---------------------------|


--------------------------------------------------------------------|
--------------------------------------------------------------------|
-------------------------------------------8-8-8-8-8-7-7-7-7-3-3-3--|
-------------------------------------------X-X-X-X-X-X-X-X-X-x-x-x--|
----------------------------------------0--6-6-6-6-6-5-5-5-5-1-1-1--|
-6~\-0-5~--\-0-6-6-8-5~--\-0-6~-\-0-5~--0---------------------------|




L
----------------------------------------------------------------------------|
----------------------------------------------------------------------------|
----8-8-8-8-8-7-7-7-7-14-14-14-----8-8-8-8-8-7-7-7-7-17-17-17-19--17-14-14--|
----X-X-X-X-X-X-X-X-X--X--X--X-----X-X-X-X-X-X-X-X-X--X--X--X--X--X--X--X---|
-0--6-6-6-6-6-5-5-5-5-12-12-12--0--6-6-6-6-6-5-5-5-5-15-15-15-17~-15\12-12~-|
-0------------------------------0-------------------------------------------|

R
--------------------------------------------------------------------------|
--------------------------------------------------------------------------|
----8-8-8-8-8-7-7-7-7-14-14-14-----8-8-8-8-8-7-7-7-7----------------------|
----X-X-X-X-X-X-X-X-X--X--X--X-----X-X-X-X-X-X-X-X-X-10-10-10-12~-10\7-7--|
-0--6-6-6-6-6-5-5-5-5-12-12-12--0--6-6-6-6-6-5-5-5-5--X--X--X--X---X-X-X--|
-0------------------------------0--------------------10-10-10-12~-10\7-7~-|




4:24

-------------------------------------------------------------|
-------------------------------------------------------------|
---_-----7-8----8-8-8-8-7-7-7----_-----7-8---10101010-7-7-7--|
--/ \----5-6----X-X-X-X-X-X-X---/ \----5-6----X-X-X-X-X-X-X--|
-6-5-0-6-5/6----6-6-6-6-5-5-5--6-5-0-6-5/6-0--8-8-8-8-5-5-5--|
-6-5-0-6-----0-----------------6-5-0-6-----0-----------------|


----------------------------------------------------------------|
----------------------------------------------------------------|
---_-----7-8----8-8-8-8-7-7-7-----------------------------------|
--/ \----5-6----X-X-X-X-X-X-X--------------------------11111111-|
-6-5-0-6-5/6----6-6-6-6-5-5-5---------------------------X-X-X-X-|
-6-5-0-6-----0-----------------8-8-8-8-8-8-7-7-7-7-7-7-11111111-|



-------------------------------------------------------------|
-------------------------------------------------------------|
---_-----7-8----8-8-8-8-7-7-7----_-----7-8---10101010-7-7-7--|
--/ \----5-6----X-X-X-X-X-X-X---/ \----5-6----X-X-X-X-X-X-X--|
-6-5-0-6-5/6----6-6-6-6-5-5-5--6-5-0-6-5/6-0--8-8-8-8-5-5-5--|
-6-5-0-6-----0-----------------6-5-0-6-----0-----------------|


---------------------------------------------------------------|
---------------------------------------------------------------|
---_-----7-8----8-8-8-8-7-7-7----------------------------------|
--/ \----5-6----X-X-X-X-X-X-X----------------------------------|
-6-5-0-6-5/6----6-6-6-6-5-5-5----------------------------------|
-6-5-0-6-----0-----------------8-8-8-8-8-8-7-7-7-7-7-7-1-1-1-1-|





-------------------------------------------------------------|
-------------------------------------------------------------|
---_-----7-8----8-8-8-8-7-7-7----_-----7-8---10101010-7-7-7--|
--/ \----5-6----X-X-X-X-X-X-X---/ \----5-6----X-X-X-X-X-X-X--|
-6-5-0-6-5/6----6-6-6-6-5-5-5--6-5-0-6-5/6-0--8-8-8-8-5-5-5--|
-6-5-0-6-----0-----------------6-5-0-6-----0-----------------|


----------------------------------------------------------------|
----------------------------------------------------------------|
---_-----7-8----8-8-8-8-7-7-7-----------------------------------|
--/ \----5-6----X-X-X-X-X-X-X--------------------------11111111-|
-6-5-0-6-5/6----6-6-6-6-5-5-5---------------------------X-X-X-X-|
-6-5-0-6-----0-----------------8-8-8-8-8-8-7-7-7-7-7-7-11111111-|



-------------------------------------------------------------|
-------------------------------------------------------------|
---_-----7-8----8-8-8-8-7-7-7----_-----7-8---10101010-7-7-7--|
--/ \----5-6----X-X-X-X-X-X-X---/ \----5-6----X-X-X-X-X-X-X--|
-6-5-0-6-5/6----6-6-6-6-5-5-5--6-5-0-6-5/6-0--8-8-8-8-5-5-5--|
-6-5-0-6-----0-----------------6-5-0-6-----0-----------------|


---------------------------------------------------------------|
---------------------------------------------------------------|
---_-----7-8----8-8-8-8-7-7-7----------------------------------|
--/ \----5-6----X-X-X-X-X-X-X----------------------------------|
-6-5-0-6-5/6----6-6-6-6-5-5-5----------------------------------|
-6-5-0-6-----0-----------------8-8-8-8-8-8-7-7-7-7-7-7-1-1-1-1-|




---------------------------------|
---------------------------------|
---------------------------------|
---------------------------------|
---------------------------------|
-8-8-8-8-8-8-7-7-7-7-7-7-1-1-1-1-|



-----------------------------------|
-----------------------------------|
-----------------------------------|
-------------------------11111111--|
--------------------------X-X-X-X--|
-8-8-8-8-8-8-7-7-7-7-7-7-11111111--|




5:05

----------------------------------------------------|
----------------------------------------------------|
----------------------------------------------------|
----__-----__----__---------__-----__----__---------|
--^-)(---^-)(--^-)(-------^-)(---^-)(--^-)(--^---^--|
-0-1----0-1---0-1-----0--0-1----0-1---0-1---0-1-0-1-|



----------------------------------------------------------|
----------------------------------------------------------|
----------------------------------------------------------|
----__-----__----__------------__-----__----__------------|
--^-)(---^-)(--^-)(---^------^-)(---^-)(--^-)(--^---^---^-|
-0-1----0-1---0-1----0-1-0--0-1----0-1---0-1---0-1-0-1-0-1|





-------------------------------------------------------|
-------------------------------------------------------|
----__-----__----__------------__-----__----__---------|
--^-)(---^-)(--^-)(---^------^-)(---^-)(--^-)(--^---^--|
-0-1----0-1---0-1----0-1-0--0-1----0-1---0-1---0-1-0-1-|
-0-1----0-1---0-1----0-1-0--0-1----0-1---0-1---0-1-0-1-|



----------------------------------------------------|
----------------------------------------------------|
----__-----__----__------------__-----__----__------|
--^-)(---^-)(--^-)(---^------^-)(---^-)(--^-)(--^---|
-0-1----0-1---0-1----0-1-0--0-1----0-1---0-1---0-1-0|
-0-1----0-1---0-1----0-1-0--0-1----0-1---0-1---0-1-0|

















\\\\\\\\\\\\\\\\\\\\\\\\\\\\\\\\\\\\\\\\\\\\\\\\\\\\\\\\\\\\\\\\\\\\\
\\\\\\\\\\\\\\\\\\\\\\\\\\\\\\\\\\\\\\\\\\\\\\\\\\\\\\\\\\\\\\\\\\\\\
\\\\\\\\\\\\\\\\\\\\\\\\\\\\\\\\\\\\\\\\\\\\\\\\\\\\\\\\\\\\\\\\\\\\\\
\\\\\\\\\\\\\\\\\\\\\\\\\\\\\\\\\\\\\\\\\\\\\\\\\\\\\\\\\\\\\\\\\\\\\\














SLIPKNOT 

IF RAIN IS WHAT YOU WANT


B-F#-B-E-G#-C#


TABBED BY andherembrace





0:17

-----------------------------------------------------------------------------------------|
-----------------------------------------------------------------------------------------|
----14---14-15-14---14----14---14-15-14---14----14---14-15-14---14----14---14-15-14---15-|
-----------------------------------------------------------------------------------------|
-12----12--------12----12----12--------12----13----13--------13----13----13--------13----|
-----------------------------------------------------------------------------------------|


-----------------------------------------------------------------------------------------|
-----------------------------------------------------------------------------------------|
----14---14-15-14---14----14---14-15-14---14----14---14-15-14---14----14---14-15-14---15-|
-----------------------------------------------------------------------------------------|
-12----12--------12----12----12--------12----13----13--------13----13----13--------13----|
-----------------------------------------------------------------------------------------|


-----------------------------------------------------------------------------------------|
-----------------------------------------------------------------------------------------|
----14---14-15-14---14----14---14-15-14---14----14---14-15-14---14----14---14-15-14---15-|
-----------------------------------------------------------------------------------------|
-12----12--------12----12----12--------12----13----13--------13----13----13--------13----|
-----------------------------------------------------------------------------------------|


0:40


L
-----------------------------------------------------------------------------------------|
-----------------------------------------------------------------------------------------|
----14---14-15-14---14----14---14-15-14---14----14---14-15-14---14----14---14-15-14---15-|
-----------------------------------------------------------------------------------------|
-12----12--------12----12----12--------12----13----13--------13----13----13--------13----|
-----------------------------------------------------------------------------------------|

R
-------------------------------------------------------------------------------------|
-------------------------------------------------------------------------------------|
---7-----7-8-7-----7------7-----7-8-7----7-----7-----7-8-7----7-----7-----7-8-7-----7|
-------------------------------------------------------------------------------------|
5-----5---------5-----5------5--------5-----6-----6--------6-----6-----6---------6---|
-------------------------------------------------------------------------------------|



L
-----------------------------------------------------------------------------------------|
-----------------------------------------------------------------------------------------|
----14---14-15-14---14----14---14-15-14---14----14---14-15-14---14----14---14-15-14---15-|
-----------------------------------------------------------------------------------------|
-12----12--------12----12----12--------12----13----13--------13----13----13--------13----|
-----------------------------------------------------------------------------------------|


R
-------------------------------------------------------------------------------------|
-------------------------------------------------------------------------------------|
---7-----7-8-7-----7------7-----7-8-7----7-----7-----7-8-7----7-----7-----7-8-7-----7|
-------------------------------------------------------------------------------------|
5-----5---------5-----5------5--------5-----6-----6--------6-----6-----6---------6---|
-------------------------------------------------------------------------------------|



L
-----------------------------------------------------------------------------------------|
-----------------------------------------------------------------------------------------|
----14---14-15-14---14----14---14-15-14---14----14---14-15-14---14----14---14-15-14---15-|
-----------------------------------------------------------------------------------------|
-12----12--------12----12----12--------12----13----13--------13----13----13--------13----|
-----------------------------------------------------------------------------------------|

R
-------------------------------------------------------------------------------------|
-------------------------------------------------------------------------------------|
---7-----7-8-7-----7------7-----7-8-7----7-----7-----7-8-7----7-----7-----7-8-7-----7|
-------------------------------------------------------------------------------------|
5-----5---------5-----5------5--------5-----6-----6--------6-----6-----6---------6---|
-------------------------------------------------------------------------------------|



L
-----------------------------------------------------------------------------------------|
-----------------------------------------------------------------------------------------|
----14---14-15-14---14----14---14-15-14---14----14---14-15-14---14----14---14-15-14---15-|
-----------------------------------------------------------------------------------------|
-12----12--------12----12----12--------12----13----13--------13----13----13--------13----|
-----------------------------------------------------------------------------------------|

R
-------------------------------------------------------------------------------------|
-------------------------------------------------------------------------------------|
---7-----7-8-7-----7------7-----7-8-7----7-----7-----7-8-7----7-----7-----7-8-7-----7|
-------------------------------------------------------------------------------------|
5-----5---------5-----5------5--------5-----6-----6--------6-----6-----6---------6---|
-------------------------------------------------------------------------------------|




L
-----------------------------------------------------------------------------------------|
-----------------------------------------------------------------------------------------|
----14---14-15-14---14----14---14-15-14---14----14---14-15-14---14----14---14-15-14---15-|
-----------------------------------------------------------------------------------------|
-12----12--------12----12----12--------12----13----13--------13----13----13--------13----|
-----------------------------------------------------------------------------------------|

R
-------------------------------------------------------------------------------------|
-------------------------------------------------------------------------------------|
---7-----7-8-7-----7------7-----7-8-7----7-----7-----7-8-7----7-----7-----7-8-7-----7|
-------------------------------------------------------------------------------------|
5-----5---------5-----5------5--------5-----6-----6--------6-----6-----6---------6---|
-------------------------------------------------------------------------------------|



L
-----------------------------------------------------------------------------------------|
-----------------------------------------------------------------------------------------|
----14---14-15-14---14----14---14-15-14---14----14---14-15-14---14----14---14-15-14---15-|
-----------------------------------------------------------------------------------------|
-12----12--------12----12----12--------12----13----13--------13----13----13--------13----|
-----------------------------------------------------------------------------------------|


R
-------------------------------------------------------------------------------------|
-------------------------------------------------------------------------------------|
---7-----7-8-7-----7------7-----7-8-7----7-----7-----7-8-7----7-----7-----7-8-7-----7|
-------------------------------------------------------------------------------------|
5-----5---------5-----5------5--------5-----6-----6--------6-----6-----6---------6---|
-------------------------------------------------------------------------------------|




L
-----------------------------------------------------------------------------------------|
-----------------------------------------------------------------------------------------|
----14---14-15-14---14----14---14-15-14---14----14---14-15-14---14----14---14-15-14---15-|
-----------------------------------------------------------------------------------------|
-12----12--------12----12----12--------12----13----13--------13----13----13--------13----|
-----------------------------------------------------------------------------------------|


R
-------------------------------------------------------------------------------------|
-------------------------------------------------------------------------------------|
---7-----7-8-7-----7------7-----7-8-7----7-----7-----7-8-7----7-----7-----7-8-7-----7|
-------------------------------------------------------------------------------------|
5-----5---------5-----5------5--------5-----6-----6--------6-----6-----6---------6---|
-------------------------------------------------------------------------------------|



L
-----------------------------------------------------------------------------------------|
-----------------------------------------------------------------------------------------|
----14---14-15-14---14----14---14-15-14---14----14---14-15-14---14----14---14-15-14---15-|
-----------------------------------------------------------------------------------------|
-12----12--------12----12----12--------12----13----13--------13----13----13--------13----|
-----------------------------------------------------------------------------------------|


R
-------------------------------------------------------------------------------------|
-------------------------------------------------------------------------------------|
---7-----7-8-7-----7------7-----7-8-7----7-----7-----7-8-7----7-----7-----7-8-7-----7|
-------------------------------------------------------------------------------------|
5-----5---------5-----5------5--------5-----6-----6--------6-----6-----6---------6---|
-------------------------------------------------------------------------------------|




L
-----------------------------------------------------------------------------------------|
-----------------------------------------------------------------------------------------|
----14---14-15-14---14----14---14-15-14---14----14---14-15-14---14----14---14-15-14---15-|
-----------------------------------------------------------------------------------------|
-12----12--------12----12----12--------12----13----13--------13----13----13--------13----|
-----------------------------------------------------------------------------------------|

R
-------------------------------------------------------------------------------------|
-------------------------------------------------------------------------------------|
---7-----7-8-7-----7------7-----7-8-7----7-----7-----7-8-7----7-----7-----7-8-7-----7|
-------------------------------------------------------------------------------------|
5-----5---------5-----5------5--------5-----6-----6--------6-----6-----6---------6---|
-------------------------------------------------------------------------------------|






L
---------------------------------------------------------------------------|
---------------------------------------------------------------------------|
----14---14-15-14---14----14---14-15-14---14----14---14-15-14---14----14---|
---------------------------------------------------------------------------|
-12----12--------12----12----12--------12----13----13--------13----13------|
---------------------------------------------------------------------------|

R
------------------------------------------------------------------------|
------------------------------------------------------------------------|
---7-----7-8-7-----7------7-----7-8-7----7-----7-----7-8-7----7-----7---|
------------------------------------------------------------------------|
5-----5---------5-----5------5--------5-----6-----6--------6-----6------|
------------------------------------------------------------------------|







1:57



--------------------------------------------------------|
--------------------------------------------------------|
--------------------------------------------------------|
---0------5-----1-----3-----0----5-----1-----3-----0----|
---0------x-----x-----x-----0----x-----x-----x-----0----|
-\-0------5-----1-----3-----0----5-----1-----3-----0----|





L
-----------------------------------------------------------------------------------------|
-----------------------------------------------------------------------------------------|
----14---14-15-14---14----14---14-15-14---14----14---14-15-14---14----14---14-15-14---15-|
-----------------------------------------------------------------------------------------|
-12----12--------12----12----12--------12----13----13--------13----13----13--------13----|
-----------------------------------------------------------------------------------------|


R
-------------------------------------------------------------------------------------|
-------------------------------------------------------------------------------------|
---7-----7-8-7-----7------7-----7-8-7----7-----7-----7-8-7----7-----7-----7-8-7-----7|
-------------------------------------------------------------------------------------|
5-----5---------5-----5------5--------5-----6-----6--------6-----6-----6---------6---|
-------------------------------------------------------------------------------------|



L
-----------------------------------------------------------------------------------------|
-----------------------------------------------------------------------------------------|
----14---14-15-14---14----14---14-15-14---14----14---14-15-14---14----14---14-15-14---15-|
-----------------------------------------------------------------------------------------|
-12----12--------12----12----12--------12----13----13--------13----13----13--------13----|
-----------------------------------------------------------------------------------------|

R
-------------------------------------------------------------------------------------|
-------------------------------------------------------------------------------------|
---7-----7-8-7-----7------7-----7-8-7----7-----7-----7-8-7----7-----7-----7-8-7-----7|
-------------------------------------------------------------------------------------|
5-----5---------5-----5------5--------5-----6-----6--------6-----6-----6---------6---|
-------------------------------------------------------------------------------------|




L
-----------------------------------------------------------------------------------------|
-----------------------------------------------------------------------------------------|
----14---14-15-14---14----14---14-15-14---14----14---14-15-14---14----14---14-15-14---15-|
-----------------------------------------------------------------------------------------|
-12----12--------12----12----12--------12----13----13--------13----13----13--------13----|
-----------------------------------------------------------------------------------------|


R
-------------------------------------------------------------------------------------|
-------------------------------------------------------------------------------------|
---7-----7-8-7-----7------7-----7-8-7----7-----7-----7-8-7----7-----7-----7-8-7-----7|
-------------------------------------------------------------------------------------|
5-----5---------5-----5------5--------5-----6-----6--------6-----6-----6---------6---|
-------------------------------------------------------------------------------------|



L
---------------------------------------------------------------------------|
---------------------------------------------------------------------------|
----14---14-15-14---14----14---14-15-14---14----14---14-15-14---14----14---|
---------------------------------------------------------------------------|
-12----12--------12----12----12--------12----13----13--------13----13------|
---------------------------------------------------------------------------|

R
------------------------------------------------------------------------|
------------------------------------------------------------------------|
---7-----7-8-7-----7------7-----7-8-7----7-----7-----7-8-7----7-----7---|
------------------------------------------------------------------------|
5-----5---------5-----5------5--------5-----6-----6--------6-----6------|
------------------------------------------------------------------------|




2:40



-------------------------------------------------------|
-------------------------------------------------------|
-------------------------------------------------------|
---0------5-----1-----3-----0----5-----1-----3---------|
---0------x-----x-----x-----0----x-----x-----x---------|
-\-0------5-----1-----3-----0----5-----1-----3---------|


1
-----------------------------------------------|
-----------------------------------------------|
-----------------------------------------------|
---0-----------5----------1----------3---------|
---0-----------x----------x----------x---------|
-\-0-----------5----------1----------3---------|

2
---------0-5-----------------------------------------|
-------6-----6---5-6----------)(---------------------|
----/7---------7-------------2---0-----2-0-----------|
------------------------------------3------3-1-------|
-0---------------------------------------------------|
-0--------------------5--1---------------------------|


1
-----------------------------------------------|
-----------------------------------------------|
-----------------------------------------------|
---0-----------5----------1----------3---------|
---0-----------x----------x----------x---------|
-\-0-----------5----------1----------3---------|
2
---------0-5-----------------------------------------|
-------6-----6---5-6----------)(---------------------|
----/7---------7-------------2---0-----2-0-----------|
------------------------------------3------3-1-------|
-0---------------------------------------------------|
-0--------------------5--1---------------------------|


1
-----------------------------------------------|
-----------------------------------------------|
-----------------------------------------------|
---0-----------5----------1----------3---------|
---0-----------x----------x----------x---------|
-\-0-----------5----------1----------3---------|

2
---------0-5-----------------------------------------|
-------6-----6---5-6----------)(---------------------|
----/7---------7-------------2---0-----2-0-----------|
------------------------------------3------3-1-------|
-0---------------------------------------------------|
-0--------------------5--1---------------------------|


1
-----------------------------------------------|
-----------------------------------------------|
-----------------------------------------------|
---0-----------5----------1----------3---------|
---0-----------x----------x----------x---------|
-\-0-----------5----------1----------3---------|

2
---------0-5-----------------------------------------|
-------6-----6---5-6----------)(---------------------|
----/7---------7-------------2---0-----2-0-----------|
------------------------------------3------3-1-------|
-----------------------------------------------------|
-0--------------------5--1---------------------------|






L
------------------------------------------------------------------------|
---10---10-11-10----10---10---10-11-10---10---10---10-11-10---10---10---|
------------------------------------------------------------------------|
-7----7----------7-----7----7----------7----8----8----------8----8------|
------------------------------------------------------------------------|
------------------------------------------------------------------------|

R
------------------------------------------------------------------------|
------------------------------------------------------------------------|
---7-----7-8-7-----7------7-----7-8-7----7-----7-----8-8/10-8-7-8-------|
------------------------------------------------------------------------|
5-----5---------5-----5------5--------5-----6-----6---------------------|
------------------------------------------------------------------------|







3:38


------------------------------------------------------------------|
------------------------------------------------------------------|
------------------------------------------------------------------|
------------------------------------------------------------------|
---0-------------0---0-----------3-1-------------1---1------------|
---0-0-0-0-000-0-0-0-0-0-0-000-0-3-1-1-1-1-111-1-1-1-1-1-1-111-1--|
     * * * *** *   *   * * *** *     * * * *** *   *   * * *** * 

------------------------------------------------------------------|
------------------------------------------------------------------|
------------------------------------------------------------------|
------------------------------------------------------------------|
-3-0-------------0---0-----------3-1-------------1---1------------|
-3-0-0-0-0-000-0-0-0-0-0-0-000-0-3-1-1-1-1-111-1-1-1-1-1-1-111-1--|
     * * * *** *   *   * * *** *     * * * *** *   *   * * *** * 

------------------------------------------------------------------|
------------------------------------------------------------------|
------------------------------------------------------------------|
------------------------------------------------------------------|
-3-0-------------0---0-----------3-1-------------1---1------------|
-3-0-0-0-0-000-0-0-0-0-0-0-000-0-3-1-1-1-1-111-1-1-1-1-1-1-111-1--|
     * * * *** *   *   * * *** *     * * * *** *   *   * * *** * 

------------------------------------------------------------------|
------------------------------------------------------------------|
------------------------------------------------------------------|
------------------------------------------------------------------|
-3-0-------------0---0-----------3-1-------------1---1------------|
-3-0-0-0-0-000-0-0-0-0-0-0-000-0-3-1-1-1-1-111-1-1-1-1-1-1-111-1--|
     * * * *** *   *   * * *** *     * * * *** *   *   * * *** * 




4:10

L
---------------------------------------------------------------------|
---------------------------------------------------------------------|
---------------------------------------------------------------------|
---------------------------------------------------------------------|
-3-5-------------------3---6---3---5-1-------------------5---3---1---|
-3-5-----------------0-3-0-6-0-3-0-5-1-------------------5-0-3-0-1-0-|
                     *   *   *   *                         *   *   *
R
---------------------------------------------------------------------|
---------------------------------------------------------------------|
-------------_---------------------------------_---------------------|
------------/ \-------------------------------/ \--------------------|
-3-5-------5-6-5-3-5---3---6---3---5-1-------1-3-1-0-1---5---3---1---|
-3-5-5-5-5-5-6-5-3-5-0-3-0-6-0-3-0-5-1-1-1-1-1-3-1-0-1-0-5-0-3-0-1-0-|
     * * *           *   *   *   *     * * *           *   *   *   *


L
------------------------------------------------------------------------|
------------------------------------------------------------------------|
------------------------------------------------------------------------|
---------------------------------------------------------6655-----------|
-3-5-------------------3---6---3---5-6-----------------------6655335566-|
-3-5-----------------0-3-0-6-0-3-0-5-6-----------------55---------------|
                     *   *   *   *                     ****************
R
------------------------------------------------------------------------|
------------------------------------------------------------------------|
-------------_---------------------------------_------------------------|
------------/ \-------------------------------/ \--------6655-----------|
-3-5-------5-6-5-3-5---3---6---3---5-6-------6-8-6-5-6-------6655335566-|
-3-5-5-5-5-5-6-5-3-5-0-3-0-6-0-3-0-5-6-6-6-6-6-8-6-5-6-55---------------|
     * * *           *   *   *   *     * * *           ****************



4:26

L
---------------------------------------------------------------------|
---------------------------------------------------------------------|
---------------------------------------------------------------------|
---------------------------------------------------------------------|
---5-------------------3---6---3---5-1-------------------5---3---1---|
---5-----------------0-3-0-6-0-3-0-5-1-------------------5-0-3-0-1-0-|
                     *   *   *   *                         *   *   *
R
---------------------------------------------------------------------|
---------------------------------------------------------------------|
-------------_---------------------------------_---------------------|
------------/ \-------------------------------/ \--------------------|
---5-------5-6-5-3-5---3---6---3---5-1-------1-3-1-0-1---5---3---1---|
---5-5-5-5-5-6-5-3-5-0-3-0-6-0-3-0-5-1-1-1-1-1-3-1-0-1-0-5-0-3-0-1-0-|
     * * *           *   *   *   *     * * *           *   *   *   *


L
------------------------------------------------------------------------|
------------------------------------------------------------------------|
------------------------------------------------------------------------|
---------------------------------------------------------6655-----------|
-3-5-------------------3---6---3---5-6-----------------------6655335566-|
-3-5-----------------0-3-0-6-0-3-0-5-6-----------------55---------------|
                     *   *   *   *                     ****************
R
------------------------------------------------------------------------|
------------------------------------------------------------------------|
-------------_---------------------------------_------------------------|
------------/ \-------------------------------/ \--------6655-----------|
-3-5-------5-6-5-3-5---3---6---3---5-6-------6-8-6-5-6-------6655335566-|
-3-5-5-5-5-5-6-5-3-5-0-3-0-6-0-3-0-5-6-6-6-6-6-8-6-5-6-55---------------|
     * * *           *   *   *   *     * * *           ****************




4:41


1
------------------------------------------------------------------|
------------------------------------------------------------------|
------------------------------------------------------------------|
------------------------------------------------------------------|
---0-------------0---0-----------3-1-------------1---1------------|
---0-0-0-0-000-0-0-0-0-0-0-000-0-3-1-1-1-1-111-1-1-1-1-1-1-111-1--|
     * * * *** *   *   * * *** *     * * * *** *   *   * * *** * 
2
------------------------------------------------------------------|
------------------------------------------------------------------|
--7---------8-----7------3-------10--------8-7-8------------------|
--X---------X-----X------X--------X--------X-X-X------------------|
--5---------6-----5------1--------8--------6\5-6------------------|
------------------------------------------------------------------|


1
------------------------------------------------------------------|
------------------------------------------------------------------|
------------------------------------------------------------------|
------------------------------------------------------------------|
-3-0-------------0---0-----------3-1-------------1---1------------|
-3-0-0-0-0-000-0-0-0-0-0-0-000-0-3-1-1-1-1-111-1-1-1-1-1-1-111-1--|
     * * * *** *   *   * * *** *     * * * *** *   *   * * *** * 

2
------------------------------------------------------------------|
------------------------------------------------------------------|
-8----7-7--------8-----7------3-3-----10--------8-7-8-------------|
-X----X-X--------X-----X------X-X------X--------X-X-X-------------|
-6----5-5--------6-----5------1-1------8--------6\5-6-------------|
------------------------------------------------------------------|





4:56

1
------------------------------------------------------------------|
------------------------------------------------------------------|
------------------------------------------------------------------|
------------------------------------------------------------------|
-3-0-------------0---0-----------3-1-------------1---1------------|
-3-0-0-0-0-000-0-0-0-0-0-0-000-0-3-1-1-1-1-111-1-1-1-1-1-1-111-1--|
     * * * *** *   *   * * *** *     * * * *** *   *   * * *** * 
2
---------------------------------------------------------------------|
---------------------------------------------------------------------|
---------------------------------------------------------------------|
///--///-///-///----///-///-///-----///---///-///-///---///-///-///--|
-6----5---3---5------6---5---1-------8-----6---5---6-----10--8---6---|
---------------------------------------------------------------------|



1
------------------------------------------------------------------|
------------------------------------------------------------------|
------------------------------------------------------------------|
------------------------------------------------------------------|
-3-0-------------0---0-----------3-1------------------------------|
-3-0-0-0-0-000-0-0-0-0-0-0-000-0-3-1------------------------------|
     * * * *** *   *   * * *** *    

2
---------------------------------------------------------------------|
---------------------------------------------------------------------|
///--///-///-///----///-///-///---///---///-///-///---///--///--///--|
-8----7---5---7------8---7---3-----10----8---7---8-----12---10---8---|
---------------------------------------------------------------------|
---------------------------------------------------------------------|





5:11


1
---------0-5-----------------------------------------|
-------6-----6---5-6----------)(---------------------|
----/7---------7-------------2---0-----2-0-----------|
------------------------------------3------3-1-------|
-----------------------------------------------------|
-0--------------------5--1---------------------------|

2
-----------------------------------------------------------------|
-----------------------------------------------------------------|
-----------------------------------------------------------------|
-----------------------------------------------------------------|
-0-------0-----0---0-----0---5--1-------1-----1---1-----1---1----|
-0-0-0-0-0-0-0-0-0-0-0-0-0-0-5--1-1-1-1-1-1-1-1-1-1-1-1-1-1-1-1--|
   * * *   * *   *   * *   *      * * *   * *   *   * *   *   *

3
-----------------------------------------------------------------|
-----------------------------------------------------------------|
--------------------------------///--------///--///--///---------|
--------------------------------15---------13---12---13----------|
-----------------------------------------------------------------|
-----------------------------------------------------------------|








1
---------0-5-----------------------------------------|
-------6-----6---5-6----------)(---------------------|
----/7---------7-------------2---0-----2-0-----------|
------------------------------------3------3-1-------|
-----------------------------------------------------|
-0--------------------5--1---------------------------|

2
-----------------------------------------------------------------|
-----------------------------------------------------------------|
-----------------------------------------------------------------|
-----------------------------------------------------------------|
-0-------0-----0---0-----0---5--1-------1-----1---1-----1---1----|
-0-0-0-0-0-0-0-0-0-0-0-0-0-0-5--1-1-1-1-1-1-1-1-1-1-1-1-1-1-1-1--|
   * * *   * *   *   * *   *      * * *   * *   *   * *   *   *

3
-----------------------------------------------------------------|
-----------------------------------------------------------------|
--------------------------------///--------///--///--------------|
--------------------------------15---------17---13---------------|
-----------------------------------------------------------------|
-----------------------------------------------------------------|








1
---------0-5-----------------------------------------|
-------6-----6---5-6----------)(---------------------|
----/7---------7-------------2---0-----2-0-----------|
------------------------------------3------3-1-------|
-----------------------------------------------------|
-0--------------------5--1---------------------------|

2
-----------------------------------------------------------------|
-----------------------------------------------------------------|
-----------------------------------------------------------------|
-----------------------------------------------------------------|
-0-------0-----0---0-----0---5--1-------1-----1---1-----1---1----|
-0-0-0-0-0-0-0-0-0-0-0-0-0-0-5--1-1-1-1-1-1-1-1-1-1-1-1-1-1-1-1--|
   * * *   * *   *   * *   *      * * *   * *   *   * *   *   *

3
-----------------------------------------------------------------|
///---------------------------///---------------------///--------|
-14----------------------------15----------------------17--------|
-----------------------------------------------------------------|
-----------------------------------------------------------------|
-----------------------------------------------------------------|








1
---------0-5-----------------------------------------|
-------6-----6---5-6----------)(---------------------|
----/7---------7-------------2---0-----2-0-----------|
------------------------------------3------3-1-------|
-----------------------------------------------------|
-0--------------------5--1---------------------------|

2
------------------------------------------------------------------|
------------------------------------------------------------------|
------------------------------------------------------------------|
------------------------------------------------------------------|
-0-------0-----0---0-----0---5--1-------1-----1---1-----1---1-----|
-0-0-0-0-0-0-0-0-0-0-0-0-0-0-5--1-1-1-1-1-1-1-1-1-1-1-1-1-1-1-1-0-|
   * * *   * *   *   * *   *      * * *   * *   *   * *   *   *

3
///----------------------------///--------------------///)GRAD BEND-|
-15----------------------------16---------------------18------------|
--------------------------------------------------------------------|
--------------------------------------------------------------------|
--------------------------------------------------------------------|
--------------------------------------------------------------------|






1
---------0-5-----------------------------------------|
-------6-----6---5-6----------)(---------------------|
----/7---------7-------------2---0-----2-0-----------|
------------------------------------3------3-1-------|
-----------------------------------------------------|
-0--------------------5--1---------------------------|

2
------------------------------------------------------------------|
------------------------------------------------------------------|
------------------------------------------------------------------|
------------------------------------------------------------------|
------------------------------------------------------------------|
-0------------------------1---------------------------------------|
   


1
---------0-5-----------------------------------------|
-------6-----6---5-6----------)(---------------------|
----/7---------7-------------2---0-----2-0-----------|
------------------------------------3------3-1-------|
-----------------------------------------------------|
-0--------------------5--1---------------------------|

2
------------------------------------------------------------------|
------------------------------------------------------------------|
------------------------------------------------------------------|
------------------------------------------------------------------|
------------------------------------------------------------------|
-0----------------------------------------------------------------|




---------0-5-----------------------------------------|
-------6-----6---5-6----------)(---------------------|
----/7---------7-------------2---0-----2-0-----------|
------------------------------------3------3-1-------|
-----------------------------------------------------|
-0--------------------5--1---------------------------|



---------0-5-----------------------------------------|
-------6-----6---5-6----------)(---------------------|
----/7---------7-------------2---0-----2-0-----------|
------------------------------------3------3-1--0----|
-----------------------------------------------------|
-0--------------------5--1---------------------------|












\\\\\\\\\\\\\\\\\\\\\\\\\\\\\\\\\\\\\\\\\\\\\\\\\\\\\\\\\\\\\\\\\
\\\\\\\\\\\\\\\\\\\\\\\\\\\\\\\\\\\\\\\\\\\\\\\\\\\\\\\\\\\\\\\\\
\\\\\\\\\\\\\\\\\\\\\\\\\\\\\\\\\\\\\\\\\\\\\\\\\\\\\\\\\\\\\\\\\
\\\\\\\\\\\\\\\\\\\\\\\\\\\\\\\\\\\\\\\\\\\\\\\\\\\\\\\\\\\\\\\\\\\















SLIPKNOT


OVERRIDE

B-F#-B-E-G#-C#


TABBED BY andherembrace





0:36
-------------------------------------------------------------------|
-------------------------------------------------------------------|
-------------------------------------------------------------------|
---------2-------------------------------2-------------------------|
-222-3-2-0-3-2-0-333-5-3-3-5-3-5-222-3-2-0-3-2-0-333-5-3-3-5-3-5---|
-222-3-2---3-2-0-333-5-3-3-5-3-5-222-3-2---3-2-0-333-5-3-3-5-3-5---|
 *** * * * * * * *** * * * * *   *** * * * * * * *** * * * * * *

-------------------------------------------------------------------|
-------------------------------------------------------------------|
-------------------------------------------------------------------|
---------2-------------------------------2-------------------------|
-222-3-2-0-3-2-0-333-5-3-3-5-3-5-222-3-2-0-3-2-0-333-5-3-3-5-3-5---|
-222-3-2---3-2-0-333-5-3-3-5-3-5-222-3-2---3-2-0-333-5-3-3-5-3-5---|
 *** * * * * * * *** * * * * *   *** * * * * * * *** * * * * * *

-------------------------------------------------------------------|
-------------------------------------------------------------------|
-------------------------------------------------------------------|
---------2-------------------------------2-------------------------|
-222-3-2-0-3-2-0-333-5-3-3-5-3-5-222-3-2-0-3-2-0-333-5-3-3-5-3-5---|
-222-3-2---3-2-0-333-5-3-3-5-3-5-222-3-2---3-2-0-333-5-3-3-5-3-5---|
 *** * * * * * * *** * * * * *   *** * * * * * * *** * * * * * *





0:59

1
------------------------------------------------------------------|
------------------------------------------------------------------|
------------------------------------------------------------------|
------------------------------------------------------------------|
-222-3-2-5-3-2-5-222-3-2-2-3-2-3-222-3-2-5-3-2-5-222-3-2-2-3-2-3--|
-222-3-2-5-3-2-5-222-3-2-2-3-2-3-222-3-2-5-3-2-5-222-3-2-2-3-2-3--|
 *** * * * * * * *** * * * * * * *** * * * * * * *** * * * * * *

2
----------___________----------------------___________-------------|
----------)---------(----------------------)---------(-------------|
-------------------------------------------------------------------|
-------------------------------------------------------------------|
-7-----------------------------[7]---------------------------------|
-------------------------------------------------------------------|



-------------------------------------------------------------------|
-------------------------------------------------------------------|
-------------------------------------------------------------------|
---------2-------------------------------2-------------------------|
-222-3-2-0-3-2-0-333-5-3-3-5-3-5-222-3-2-0-3-2-0-333-5-3-3-5-3-5---|
-222-3-2---3-2-0-333-5-3-3-5-3-5-222-3-2---3-2-0-333-5-3-3-5-3-5---|
 *** * * * * * * *** * * * * *   *** * * * * * * *** * * * * * *



1:12

1

-------------------------------------------------------------------|
-------------------------------------------------------------------|
-------------------------------------------------------------------|
---------2-------------------------------2-------------------------|
-222-3-2-0-3-2-0-333-5-3-3-5-3-5-222-3-2-0-3-2-0-333-5-3-3-5-3-5---|
-222-3-2---3-2-0-333-5-3-3-5-3-5-222-3-2---3-2-0-333-5-3-3-5-3-5---|
 *** * *   * * * ***   * *   *   *** * *   * * * ***   * *   *  
 

2 W/ IPS SET TO +1 OCTAVE EQUIVELENT TO WHATS ON 3RD
----------___________----------------------___________-------------|
----------)--------------------------------)-----------------------|
-9--------------------12-1012--9----------------------12-1012------|
-------------------------------------------------------------------|
-7--------------------10\8/10--7----------------------10\8/10------|
-------------------------------------------------------------------|



1

-------------------------------------------------------------------|
-------------------------------------------------------------------|
-------------------------------------------------------------------|
---------2-------------------------------2-------------------------|
-222-3-2-0-3-2-0-333-5-3-3-5-3-5-222-3-2-0-3-2-0-333-5-3-3-5-3-5---|
-222-3-2---3-2-0-333-5-3-3-5-3-5-222-3-2---3-2-0-333-5-3-3-5-3-5---|
 *** * *   * * * ***   * *   *   *** * *   * * * ***   * *   *  


2 W/ IPS SET TO +1 OCTAVE EQUIVELENT TO WHATS ON 3RD
----------___________----------------------___________-------------|
----------)--------------------------------)-----------------------|
-9--------------------12-1012--9--[16-17-16-19-17-16-14]-----------|
------------------------------------X--X--X--X--X--X--X------------|
-7--------------------10\8/10--7--[14/15\14-17\15\14\12]-----------|
----------------------------------GT 3 L FILL----------------------|






1:27



--------------------------------------------------------------------------------|
--------------------------------------------------------------------------------|
--------------------------------------------------------------------------------|
-4-------------4--------9--7-5-7--5-4-5-4-------------4--------9--7-5-7--5-4-5--|
-2-------2-333-2--------7--5-3-5--3-2-3-2-------2-333-2--------7--5-3-5--3-2-3--|
--------------------------------------------------------------------------------|
         * ***                                  * ***            



1:41

1
--------------------------------------------------------------------|
--------------------------------------------------------------------|
--------------------------------------------------------------------|
-5------7-----9-----4-------7-----------5------7-----9-----4--------|
-3------5-----7-----2-------5-----5-----3------5-----7-----2--------|
----------------------------------5---------------------------------|

2
-------------------------------------------------------------------------------|
-------------------------------------------------------------------------------|
12----14----16----11-------14-----7-----12----14----16---11--11-1211-7-9-6-9-7-|
-x-----x-----x----x---------x-----x------x-----x-----x----x---X--X-X-X-X-X-X-X-|
10----12----14----9--------12-----5-----10----12----14----9---9/10\9-5-7-4-7-5-|
-------------------------------------------------------------------------------|





1:55

-------------------------------------------------------------------|
-------------------------------------------------------------------|
-------------------------------------------------------------------|
---------2-------------------------------2-------------------------|
-222-3-2-0-3-2-0-333-5-3-3-5-3-5-222-3-2-0-3-2-0-333-5-3-3-5-3-5---|
-222-3-2---3-2-0-333-5-3-3-5-3-5-222-3-2---3-2-0-333-5-3-3-5-3-5---|
 *** * * * * * * *** * * * * *   *** * * * * * * *** * * * * * *

-------------------------------------------------------------------|
-------------------------------------------------------------------|
-------------------------------------------------------------------|
---------2-------------------------------2-------------------------|
-222-3-2-0-3-2-0-333-5-3-3-5-3-5-222-3-2-0-3-2-0-333-5-3-3-5-3-5---|
-222-3-2---3-2-0-333-5-3-3-5-3-5-222-3-2---3-2-0-333-5-3-3-5-3-5---|
 *** * * * * * * *** * * * * *   *** * * * * * * *** * * * * * *

1
------------------------------------------------------------------|
------------------------------------------------------------------|
------------------------------------------------------------------|
------------------------------------------------------------------|
-222-3-2-5-3-2-5-222-3-2-2-3-2-3-222-3-2-5-3-2-5-222-3-2-2-3-2-3--|
-222-3-2-5-3-2-5-222-3-2-2-3-2-3-222-3-2-5-3-2-5-222-3-2-2-3-2-3--|
 *** * * * * * * *** * * * * * * *** * * * * * * *** * * * * * *
2
----------___________----------------------___________-------------|
----------)---------(----------------------)---------(-------------|
-------------------------------------------------------------------|
-------------------------------------------------------------------|
-7-----------------------------[7]---------------------------------|
-------------------------------------------------------------------|



-------------------------------------------------------------------|
-------------------------------------------------------------------|
-------------------------------------------------------------------|
---------2-------------------------------2-------------------------|
-222-3-2-0-3-2-0-333-5-3-3-5-3-5-222-3-2-0-3-2-0-333-5-3-3-5-3-5---|
-222-3-2---3-2-0-333-5-3-3-5-3-5-222-3-2---3-2-0-333-5-3-3-5-3-5---|
 *** * * * * * * *** * * * * *   *** * * * * * * *** * * * * * *




1
-------------------------------------------------------------------|
-------------------------------------------------------------------|
-------------------------------------------------------------------|
---------2-------------------------------2-------------------------|
-222-3-2-0-3-2-0-333-5-3-3-5-3-5-222-3-2-0-3-2-0-333-5-3-3-5-3-5---|
-222-3-2---3-2-0-333-5-3-3-5-3-5-222-3-2---3-2-0-333-5-3-3-5-3-5---|
 *** * *   * * * ***   * *   *   *** * *   * * * ***   * *   *  


2 W/ IPS SET TO +1 OCTAVE EQUIVELENT TO WHATS ON 3RD
----------___________----------------------___________-------------|
----------)--------------------------------)-----------------------|
-9--------------------12-1012--9----------------------12-1012------|
-------------------------------------------------------------------|
-7--------------------10\8/10--7----------------------10\8/10------|
-------------------------------------------------------------------|



1
-------------------------------------------------------------------|
-------------------------------------------------------------------|
-------------------------------------------------------------------|
---------2-------------------------------2-------------------------|
-222-3-2-0-3-2-0-333-5-3-3-5-3-5-222-3-2-0-3-2-0-333-5-3-3-5-3-5---|
-222-3-2---3-2-0-333-5-3-3-5-3-5-222-3-2---3-2-0-333-5-3-3-5-3-5---|
 *** * *   * * * ***   * *   *   *** * *   * * * ***   * *   *  


2 W/ IPS SET TO +1 OCTAVE EQUIVELENT TO WHATS ON 3RD
----------___________----------------------___________-------------|
----------)--------------------------------)-----------------------|
-9--------------------12-1012--9--[16-17-16-19-17-16-14]-----------|
------------------------------------X--X--X--X--X--X--X------------|
-7--------------------10\8/10--7--[14/15\14-17\15\14\12]-----------|
----------------------------------GT 3 L FILL----------------------|






2:36


--------------------------------------------------------------------------------|
--------------------------------------------------------------------------------|
--------------------------------------------------------------------------------|
-4-------------4--------9--7-5-7--5-4-5-4-------------4--------9--7-5-7--5-4-5--|
-2-------2-333-2--------7--5-3-5--3-2-3-2-------2-333-2--------7--5-3-5--3-2-3--|
--------------------------------------------------------------------------------|
         * ***                                  * ***            


1
------------------------------------------------------------------------------|
------------------------------------------------------------------------------|
------------------------------------------------------------------------------|
-5------7-----9-----4-------7-----------5------7-----9-----4------------------|
-3------5-----7-----2-------5-----5-----3------5-----7-----2------------------|
----------------------------------5---------------------------4-5-4-0-2-0-5-4-|

2
-------------------------------------------------------------------------------|
-------------------------------------------------------------------------------|
12----14----16----11-------14-----7-----12----14----16---11--11-1211-7-9-6-9-7-|
-x-----x-----x----x---------x-----x------x-----x-----x----x---X--X-X-X-X-X-X-X-|
10----12----14----9--------12-----5-----10----12----14----9---9/10\9-5-7-4-7-5-|
-------------------------------------------------------------------------------|






3:05



----------------------------------------------------------------------------------------|
----------------------------------------------------------------------------------------|
-----^--------------_----^-------^--------------_----^------^---------------------------|
----3-2--^----_----/ \--0-2-----3-2--^----_----/ \--5-3----3-2--^-----------------------|
-2------3-2--/ \--0-2-3-----2-2-----3-2--/ \--0-2-3-----2------3-2-----3--0--2--6--5--1-|
-2----------0-2-3-----------2-2---------0-2-3-----------2----------/-\-3--0--2--6--5--1-|
 *                          * *                         *





-------------------------------------------------------------------|
-------------------------------------------------------------------|
-----------___-------------___-------------___-----___-----__------|
---___----/   \----___----/   \----___----/   \---/   \---/  \-----|
--/   \--0-2-3-5--/   \--0-2-3-5--/   \--0-2-3-5-6-5-3---5-3-------|
-0-2-3-5---------0-2-3-5---------0-2-3-5---------------6-----6-3---|

-------------------------------------------------------------------|
-------------------------------------------------------------------|
-----------___-------------___-------------___-----___-----__------|
---___----/   \----___----/   \----___----/   \---/   \---/  \-----|
--/   \--0-2-3-5--/   \--0-2-3-5--/   \--0-2-3-5-6-5-3---5-3-------|
-0-2-3-5---------0-2-3-5---------0-2-3-5---------------6-----6-3---|




--------------------------------------------------------------------|
----------------------------------------------------___-----___-----|
---------_----^----------_----^----------_----^----/   \---/   \----|
---_----/ \--3-5---_----/ \--3-5---_----/ \--3-5--5-3-----3---------|
--/ \--3-5-6------/ \--3-5-6------/ \--3-5-6----------6-5---6-5-3---|
-3-5-6-----------3-5-6-----------3-5-6------------------------------|


------------------------------------------------------------------|
----------------------------------------------------___-----__----|
---------_----^----------_----^----------_----^----/   \---/  \---|
---_----/ \--3-5---_----/ \--3-5---_----/ \--3-5--6-5-3-5-3    ---|
--/ \--3-5-6------/ \--3-5-6------/ \--3-5-6----------------6-5-3-|
-3-5-6-----------3-5-6-----------3-5-6----------------------------|





3:28


1
-------------------------------------------------------------------------------------------|
-------------------------------------------------------------------------------------------|
-------------------------------------------------------------------------------------------|
-------------------------------------------------------------------------------------------|
-------------------------------------------------------------------------------------------|
-666--------666--------666--------666-555-666--------666--------666--------101010-555-666--|
 **         ***        ***        *** *** ***        ***        ***         * * * *** ***


2 W IPS SET TO +1 OCTAVE EQUIVELENT TO WHATS ON 3RD
-------------------------------------------------------------------------------------------|
-///-----------------------------///-///-///--------------------------------///---///-///--|
-8-------------------------------10---7---8----------------------------------12----7---8---|
-------------------------------------------------------------------------------------------|
-6--------------------------------8---5---6----------------------------------10----5---6---|
-------------------------------------------------------------------------------------------|




1
-------------------------------------------------------------------------------------------|
-------------------------------------------------------------------------------------------|
-------------------------------------------------------------------------------------------|
-------------------------------------------------------------------------------------------|
-------------------------------------------------------------------------------------------|
-666--------666--------666--------666-555-666--------666--------666--------101010-555-666--|
 **         ***        ***        *** *** ***        ***        ***         * * * *** ***


2 W IPS SET TO +1 OCTAVE EQUIVELENT TO WHATS ON 3RD
-------------------------------------------------------------------------------------------|
-///-----------------------------///-///-///--------------------------------///---///-///--|
-8-------------------------------10---7---8----------------------------------12----7---8---|
-------------------------------------------------------------------------------------------|
-6--------------------------------8---5---6----------------------------------10----5---6---|
-------------------------------------------------------------------------------------------|




1
-----------------------------------------------------------------------|
-----------------------------------------------------------------------|
-----------------------------------------------------------------13-9--|
-----------------------------------------------------------------11-7--|
-----------------------------------------------------------------11-7--|
-666--------666--------666--------666-555-666--------666-------/-11-7--|
 **         ***        ***        *** *** ***        ***     


2 W IPS SET TO +1 OCTAVE EQUIVELENT TO WHATS ON 3RD
-----------------------------------------------------------------------|
-///-----------------------------///-///-///---------------------------|
-8-------------------------------10---7---8----------------------------|
-----------------------------------------------------------------11-7--|
-6--------------------------------8---5---6----------------------11-7--|
--------------------------------------------------------------/--11-7--|





3:56


1
--------------------------------------------------------------|
--------------------------------------------------------------|
--------------------------------------------------------------|
--------------------------------------------------------------|
--------------------------------------------------------------|
-3~-0--1--6-5-0-3~-0--1--6-5-0-3~-0--1--6-5-0-3~-0--1--6-5-0--|

2
---------------------------------------------------------------|
---------------------------------------------------------------|
---------------------------------------------------------------|
---------------------------------------------------------------|
-3--0--1--6-5-0-3--0--1--6-5-0-3--0--1--6-5-0-3--0--1--6-5-0---|
-3--0--1--6-5-0-3--0--1--6-5-0-3--0--1--6-5-0-3--0--1--6-5-0---|


1
---------------------------------------------------------------|
---------------------------------------------------------------|
---------------------------------------------------------------|
---------------------------------------------------------------|
-3--0--1--6-5-0-3--0--1--6-5-0-3--0--1--6-5-0-2--3--5--6-3-5---|
-3--0--1--6-5-0-3--0--1--6-5-0-3--0--1--6-5-0-2--3--5--6-3-5---|

2
--------------------------------------------------------------|
--------------------------------------------------------------|
-5-----3--8-7---5-----3--8-7---5-----3--8-7-------------------|
-x-----x--x-x---x-----x--x-x---x-----x--x-x-------------------|
-3--0--1--6-5-0-3--0--1--6-5-0-3--0--1--6-5-0-2--3--5--6-3-5--|
----0---------0----0---------0----0---------0-2--3--5--6-3-5--|






--------------------------------------------------------------------------------|
--------------------------------------------------------------------------------|
--------------------------------------------------------------------------------|
-4-------------4--------9--7-5-7--5-4-5-4-------------4--------9--7-5-7--5-4-5--|
-2-------2-333-2--------7--5-3-5--3-2-3-2-------2-333-2--------7--5-3-5--3-2-3--|
--------------------------------------------------------------------------------|
         * ***                                  * ***            




1
------------------------------------------------------------------------------|
------------------------------------------------------------------------------|
------------------------------------------------------------------------------|
-5------7-----9-----4-------7-----------5------7-----9-----4------------------|
-3------5-----7-----2-------5-----5-----3------5-----7-----2------------------|
----------------------------------5---------------------------4-5-4-0-2-0-5-4-|

2
-------------------------------------------------------------------------------|
-------------------------------------------------------------------------------|
12----14----16----11-------14-----7-----12----14----16---11--11-1211-7-9-6-9-7-|
-x-----x-----x----x---------x-----x------x-----x-----x----x---X--X-X-X-X-X-X-X-|
10----12----14----9--------12-----5-----10----12----14----9---9/10\9-5-7-4-7-5-|
-------------------------------------------------------------------------------|



---------------------------------------------------|
---------------------------------------------------|
-----^--------------_----^-------^-----------------|
----3-2--^----_----/ \--0-2-----3-2--^----_--------|
-2------3-2--/ \--0-2-3-----2-2-----3-2--/ \-------|
-2----------0-2-3-----------2-2---------0-2-3--/-\-|
 *                          * *                      






4:43


-------------------------------------------------------------------|
-------------------------------------------------------------------|
-------------------------------------------------------------------|
---------2-------------------------------2-------------------------|
-222-3-2-0-3-2-0-333-5-3-3-5-3-5-222-3-2-0-3-2-0-333-5-3-3-5-3-5---|
-222-3-2---3-2-0-333-5-3-3-5-3-5-222-3-2---3-2-0-333-5-3-3-5-3-5---|
 *** * *   * * * ***   * *   *   *** * *   * * * ***   * *   *  


-------------------------------------------------------------------|
-------------------------------------------------------------------|
-------------------------------------------------------------------|
---------2-------------------------------2-------------------------|
-222-3-2-0-3-2-0-333-5-3-3-5-3-5-222-3-2-0-3-2-0-333-5-3-3-5-3-5---|
-222-3-2---3-2-0-333-5-3-3-5-3-5-222-3-2---3-2-0-333-5-3-3-5-3-5---|
 *** * *   * * * ***   * *   *   *** * *   * * * ***   * *   *  





4:56 w bend riffs

-------------------------------------------------------------------|
-------------------------------------------------------------------|
-------------------------------------------------------------------|
---------2-------------------------------2-------------------------|
-222-3-2-0-3-2-0-333-5-3-3-5-3-5-222-3-2-0-3-2-0-333-5-3-3-5-3-5---|
-222-3-2---3-2-0-333-5-3-3-5-3-5-222-3-2---3-2-0-333-5-3-3-5-3-5---|
 *** * *   * * * ***   * *   *   *** * *   * * * ***   * *   *  




-------------------------------------------------------------------|
-------------------------------------------------------------------|
-------------------------------------------------------------------|
---------2-------------------------------2-------------------------|
-222-3-2-0-3-2-0-333-5-3-3-5-3-5-222-3-2-0-3-2-0-333-5-3-3-5-3-5---|
-222-3-2---3-2-0-333-5-3-3-5-3-5-222-3-2---3-2-0-333-5-3-3-5-3-5---|
 *** * *   * * * ***   * *   *   *** * *   * * * ***   * *   *  




-------------------------------------------------------------------|
-------------------------------------------------------------------|
-------------------------------------------------------------------|
---------2-------------------------------2-------------------------|
-222-3-2-0-3-2-0-333-5-3-3-5-3-5-222-3-2-0-3-2-0-333-5-3-3-5-3-5---|
-222-3-2---3-2-0-333-5-3-3-5-3-5-222-3-2---3-2-0-333-5-3-3-5-3-5---|
 *** * *   * * * ***   * *   *   *** * *   * * * ***   * *   *  













\\\\\\\\\\\\\\\\\\\\\\\\\\\\\\\\\\\\\\\\\\\\\\\\\\\\\\\\\\\\\\\\\\\\\\
\\\\\\\\\\\\\\\\\\\\\\\\\\\\\\\\\\\\\\\\\\\\\\\\\\\\\\\\\\\\\\\\\\\\\\\
\\\\\\\\\\\\\\\\\\\\\\\\\\\\\\\\\\\\\\\\\\\\\\\\\\\\\\\\\\\\\\\\\\\\\\\\
\\\\\\\\\\\\\\\\\\\\\\\\\\\\\\\\\\\\\\\\\\\\\\\\\\\\\\\\\\\\\\\\\\\\\\\\














SLIPKNOT

THE BURDEN

A-E-A-D-F#-B


TABBED BY andherembrace







0:24

1
-----------------------------------------------------------------|
-----------------------------------------------------------------|
------------------_______________--------------------------------|
------------------)| | | | | | |(--------------------------------|
-5-5-5-5-5-5-5-5-5-5-5-5-5-5-5-5-5-5-5-5-5-5-5-5-5-5-5-5-5-5-5-5-|
-----------------------------------------------------------------|

2
------------------_______________---------------------------------|
------------------)| | | | | | |(---------------------------------|
1414141414141414141414141414141414141414141414141414141414141414--|
-x-x-x-x-x-x-x-x-x-x-x-x-x-x-x-x-x-x-x-x-x-x-x-x-x-x-x-x-x-x-x-x--|
1212121212121212121212121212121212121212121212121212121212121212--|
------------------------------------------------------------------|



1
-----------------------------------------------------------------|
-----------------------------------------------------------------|
------------------_______________--------------------------------|
------------------)| | | | | | |(--------------------------------|
-5-5-5-5-5-5-5-5-5-5-5-5-5-5-5-5-5-5-5-5-5-5-5-5-5-5-5-5-5-5-5-5-|
-----------------------------------------------------------------|

2
------------------_______________---------------------------------|
------------------)| | | | | | |(---------------------------------|
1414141414141414141414141414141414141414141414141414141414141414--|
-x-x-x-x-x-x-x-x-x-x-x-x-x-x-x-x-x-x-x-x-x-x-x-x-x-x-x-x-x-x-x-x--|
1212121212121212121212121212121212121212121212121212121212121212--|
------------------------------------------------------------------|



1
-----------------------------------------------------------------|
-----------------------------------------------------------------|
------------------_______________--------------------------------|
------------------)| | | | | | |(--------------------------------|
-5-5-5-5-5-5-5-5-5-5-5-5-5-5-5-5-5-5-5-5-5-5-5-5-5-5-5-5-5-5-5-5-|
-----------------------------------------------------------------|

2
------------------_______________---------------------------------|
------------------)| | | | | | |(---------------------------------|
1414141414141414141414141414141414141414141414141414141414141414--|
-x-x-x-x-x-x-x-x-x-x-x-x-x-x-x-x-x-x-x-x-x-x-x-x-x-x-x-x-x-x-x-x--|
1212121212121212121212121212121212121212121212121212121212121212--|
------------------------------------------------------------------|



1
-----------------------------------------------------------------|
-----------------------------------------------------------------|
------------------_______________--------------------------------|
------------------)| | | | | | |(--------------------------------|
-5-5-5-5-5-5-5-5-5-5-5-5-5-5-5-5-5-5-5-5-5-5-5-5-5-5-5-5-5-5-5-5-|
-----------------------------------------------------------------|

2
------------------_______________---------------------------------|
------------------)| | | | | | |(---------------------------------|
1414141414141414141414141414141414141414141414141414141414141414--|
-x-x-x-x-x-x-x-x-x-x-x-x-x-x-x-x-x-x-x-x-x-x-x-x-x-x-x-x-x-x-x-x--|
1212121212121212121212121212121212121212121212121212121212121212--|
------------------------------------------------------------------|








1
-----------------------------------------------------------------|
-----------------------------------------------------------------|
------------------_______________--------------------------------|
------------------)| | | | | | |(--------------------------------|
-5-5-5-5-5-5-5-5-5-5-5-5-5-5-5-5-5-5-5-5-5-5-5-5-5-5-5-5-5-5-5-5-|
-----------------------------------------------------------------|

2
------------------_______________---------------------------------|
------------------)| | | | | | |(---------------------------------|
1414141414141414141414141414141414141414141414141414141414141414--|
-x-x-x-x-x-x-x-x-x-x-x-x-x-x-x-x-x-x-x-x-x-x-x-x-x-x-x-x-x-x-x-x--|
1212121212121212121212121212121212121212121212121212121212121212--|
------------------------------------------------------------------|


1
-----------------------------------------------------------------|
-----------------------------------------------------------------|
------------------_______________--------------------------------|
------------------)| | | | | | |(--------------------------------|
-5-5-5-5-5-5-5-5-5-5-5-5-5-5-5-5-5-5-5-5-5-5-5-5-5-5-5-5-5-5-5-5-|
-----------------------------------------------------------------|

2
------------------_______________---------------------------------|
------------------)| | | | | | |(---------------------------------|
1414141414141414141414141414141414141414141414141414141414141414--|
-x-x-x-x-x-x-x-x-x-x-x-x-x-x-x-x-x-x-x-x-x-x-x-x-x-x-x-x-x-x-x-x--|
1212121212121212121212121212121212121212121212121212121212121212--|
------------------------------------------------------------------|



1
-----------------------------------------------------------------|
-----------------------------------------------------------------|
------------------_______________--------------------------------|
------------------)| | | | | | |(--------------------------------|
-5-5-5-5-5-5-5-5-5-5-5-5-5-5-5-5-5-5-5-5-5-5-5-5-5-5-5-5-5-5-5-5-|
-----------------------------------------------------------------|

2
------------------_______________---------------------------------|
------------------)| | | | | | |(---------------------------------|
1414141414141414141414141414141414141414141414141414141414141414--|
-x-x-x-x-x-x-x-x-x-x-x-x-x-x-x-x-x-x-x-x-x-x-x-x-x-x-x-x-x-x-x-x--|
1212121212121212121212121212121212121212121212121212121212121212--|
------------------------------------------------------------------|



1
-----------------------------------------------------------------|
-----------------------------------------------------------------|
------------------_______________--------------------------------|
------------------)| | | | | | |(--------------------------------|
-5-5-5-5-5-5-5-5-5-5-5-5-5-5-5-5-5-5-5-5-5-5-5-5-5-5-5-5-5-5-5-5-|
-----------------------------------------------------------------|

2
------------------_______________---------------------------------|
------------------)| | | | | | |(---------------------------------|
1414141414141414141414141414141414141414141414141414141414141414--|
-x-x-x-x-x-x-x-x-x-x-x-x-x-x-x-x-x-x-x-x-x-x-x-x-x-x-x-x-x-x-x-x--|
1212121212121212121212121212121212121212121212121212121212121212--|
------------------------------------------------------------------|






0:58


----------------------------------------------------|
----------------------------------------------------|
----------------------------------------------------|
---------------)(----------------------)(-----------|
-----------3-----------------------3----------------|
-7----1-------------4----7----1-------------4-------|





1
-----------------------------------------------------------------|
-----------------------------------------------------------------|
------------------_______________--------------------------------|
------------------)| | | | | | |(--------------------------------|
-5-5-5-5-5-5-5-5-5-5-5-5-5-5-5-5-5-5-5-5-5-5-5-5-5-5-5-5-5-5-5-5-|
-----------------------------------------------------------------|

2
------------------_______________---------------------------------|
------------------)| | | | | | |(---------------------------------|
1414141414141414141414141414141414141414141414141414141414141414--|
-x-x-x-x-x-x-x-x-x-x-x-x-x-x-x-x-x-x-x-x-x-x-x-x-x-x-x-x-x-x-x-x--|
1212121212121212121212121212121212121212121212121212121212121212--|
------------------------------------------------------------------|



1
-----------------------------------------------------------------|
-----------------------------------------------------------------|
------------------_______________--------------------------------|
------------------)| | | | | | |(--------------------------------|
-5-5-5-5-5-5-5-5-5-5-5-5-5-5-5-5-5-5-5-5-5-5-5-5-5-5-5-5-5-5-5-5-|
-----------------------------------------------------------------|

2
------------------_______________---------------------------------|
------------------)| | | | | | |(---------------------------------|
1414141414141414141414141414141414141414141414141414141414141414--|
-x-x-x-x-x-x-x-x-x-x-x-x-x-x-x-x-x-x-x-x-x-x-x-x-x-x-x-x-x-x-x-x--|
1212121212121212121212121212121212121212121212121212121212121212--|
------------------------------------------------------------------|





1:14


R
-----------------------------------------------------------------|
-----------------------------------------------------------------|
------------------_______________--------------------------------|
------------------)| | | | | | |(--------------------------------|
-5-5-5-5-5-5-5-5-5-5-5-5-5-5-5-5-5-5-5-5-5-5-5-5-5-5-5-5-5-5-5-5-|
-----------------------------------------------------------------|


-----------------------------------------------------------------|
-----------------------------------------------------------------|
------------------_______________--------------------------------|
------------------)| | | | | | |(--------------------------------|
-5-5-5-5-5-5-5-5-5-5-5-5-5-5-5-5-5-5-5-5-5-5-5-5-5-5-5-5-5-5-5-5-|
-----------------------------------------------------------------|


-----------------------------------------------------------------|
-----------------------------------------------------------------|
------------------_______________--------------------------------|
------------------)| | | | | | |(--------------------------------|
-5-5-5-5-5-5-5-5-5-5-5-5-5-5-5-5-5-5-5-5-5-5-5-5-5-5-5-5-5-5-5-5-|
-----------------------------------------------------------------|


-----------------------------------------------------------------|
-----------------------------------------------------------------|
------------------_______________--------------------------------|
------------------)| | | | | | |(--------------------------------|
-5-5-5-5-5-5-5-5-5-5-5-5-5-5-5-5-5-5-5-5-5-5-5-5-5-5-5-5-5-5-5-5-|
-----------------------------------------------------------------|

FILL
--------------------------------------17-13-15-13----------)    (--|
--------------------------------------------------17-15------------|
-------------------------------------------------------------------|
-------------------------------------------------------------------|
-------------------------------------------------------------------|
-------------------------------------------------------------------|



1:30


1
-----------------------------------------------------------------|
-----------------------------------------------------------------|
------------------_______________--------------------------------|
------------------)| | | | | | |(--------------------------------|
-5-5-5-5-5-5-5-5-5-5-5-5-5-5-5-5-5-5-5-5-5-5-5-5-5-5-5-5-5-5-5-5-|
-----------------------------------------------------------------|

2
------------------_______________---------------------------------|
------------------)| | | | | | |(---------------------------------|
1414141414141414141414141414141414141414141414141414141414141414--|
-x-x-x-x-x-x-x-x-x-x-x-x-x-x-x-x-x-x-x-x-x-x-x-x-x-x-x-x-x-x-x-x--|
1212121212121212121212121212121212121212121212121212121212121212--|
------------------------------------------------------------------|



1
-----------------------------------------------------------------|
-----------------------------------------------------------------|
------------------_______________--------------------------------|
------------------)| | | | | | |(--------------------------------|
-5-5-5-5-5-5-5-5-5-5-5-5-5-5-5-5-5-5-5-5-5-5-5-5-5-5-5-5-5-5-5-5-|
-----------------------------------------------------------------|

2
------------------_______________---------------------------------|
------------------)| | | | | | |(---------------------------------|
1414141414141414141414141414141414141414141414141414141414141414--|
-x-x-x-x-x-x-x-x-x-x-x-x-x-x-x-x-x-x-x-x-x-x-x-x-x-x-x-x-x-x-x-x--|
1212121212121212121212121212121212121212121212121212121212121212--|
------------------------------------------------------------------|



1
-----------------------------------------------------------------|
-----------------------------------------------------------------|
------------------_______________--------------------------------|
------------------)| | | | | | |(--------------------------------|
-5-5-5-5-5-5-5-5-5-5-5-5-5-5-5-5-5-5-5-5-5-5-5-5-5-5-5-5-5-5-5-5-|
-----------------------------------------------------------------|

2
------------------_______________---------------------------------|
------------------)| | | | | | |(---------------------------------|
1414141414141414141414141414141414141414141414141414141414141414--|
-x-x-x-x-x-x-x-x-x-x-x-x-x-x-x-x-x-x-x-x-x-x-x-x-x-x-x-x-x-x-x-x--|
1212121212121212121212121212121212121212121212121212121212121212--|
------------------------------------------------------------------|




1
-----------------------------------------------------------------|
-----------------------------------------------------------------|
------------------_______________--------------------------------|
------------------)| | | | | | |(--------------------------------|
-5-5-5-5-5-5-5-5-5-5-5-5-5-5-5-5-5-5-5-5-5-5-5-5-5-5-5-5-5-5-5-5-|
-----------------------------------------------------------------|

2
------------------_______________---------------------------------|
------------------)| | | | | | |(---------------------------------|
1414141414141414141414141414141414141414141414141414141414141414--|
-x-x-x-x-x-x-x-x-x-x-x-x-x-x-x-x-x-x-x-x-x-x-x-x-x-x-x-x-x-x-x-x--|
1212121212121212121212121212121212121212121212121212121212121212--|
------------------------------------------------------------------|









1:47


----------------------------------------------------|
----------------------------------------------------|
----------------------------------------------------|
---------------)(----------------------)(-----------|
-----------3-----------------------3----------------|
-7----1-------------4----7----1-------------4-------|



----------------------------------------------------|
----------------------------------------------------|
----------------------------------------------------|
---------------)(----------------------)(-----------|
-----------3-----------------------3----------------|
-7----1-------------4----7----1-------------4-------|







2:04


-------------------0--------------------------0----------|
-----------------6---6---6------------------6---6---6----|
---------------7-------7------------------7-------7------|
---------------------------------------------------------|
-0----3----0----------------0----3----0------------------|
-0----3----0----------------0----3----0------------------|


-------------------0--------------------------0----------|
-----------------6---6---6------------------6---6--------|
---------------7-------7------------------7-------7------|
---------------------------------------------------------|
-0----3----0----------------0----3----0------------------|
-0----3----0----------------0----3----0------------------|






2:21


L
-///---///---///-------///---///--///--------///--///----///-------///---///---///-|
-10----15----13--------10----15----13--------10----15----13--------10----15----13--|
-----------------------------------------------------------------------------------|
-----------------------------------------------------------------------------------|
-----------------------------------------------------------------------------------|
-----------------------------------------------------------------------------------|

R
-------------------------------------------------------------------------------|
-------------------------------------------------------------------------------|
///---///--///-------///---///---///------///--///---///-------///---///---///-|
-7----12----10--------7----12----10--------7----12----10--------7----12----10--|
-------------------------------------------------------------------------------|
-------------------------------------------------------------------------------|





2:37



----------------------------------------------------|
----------------------------------------------------|
----------------------------------------------------|
---------------)(----------------------)(-----------|
-----------3-----------------------3----------------|
-7----1-------------4----7----1-------------6-------|



----------------------------------------------------|
----------------------------------------------------|
----------------------------------------------------|
---------------)(----------------------)(-----------|
-----------3-----------------------3----------------|
-7----1-------------4----7----1-------------6-------|





2:54

----------------------------------------------------|
----------------------------------------------------|
----------------------------------------------------|
---___---------------------------___-------4--------|
--/   \-------------------------/   \------2-4---1--|
-6-7-6-0-6-1-1-0-0-3-3-0-0-1-1-6-7-6-0-6-1---4-0-1--|
           * * * * * * * * * * 


----------------------------------------------------|
----------------------------------------------------|
----------------------------------------------------|
---___---------------------------___-------4--------|
--/   \-------------------------/   \------2-4---1--|
-6-7-6-0-6-1-1-0-0-3-3-0-0-1-1-6-7-6-0-6-1---4-0-1--|
           * * * * * * * * * * 

----------------------------------------------------|
----------------------------------------------------|
----------------------------------------------------|
---___---------------------------___-------4--------|
--/   \-------------------------/   \------2-4---1--|
-6-7-6-0-6-1-1-0-0-3-3-0-0-1-1-6-7-6-0-6-1---4-0-1--|
           * * * * * * * * * * 

-----------------------------------------------------------|
-----------------------------------------------------------|
-----------------------------------------------------------|
---___---------------------------___-----------------------|
--/   \-------------------------/   \----------------------|
-6-7-6-0-6-0-0-1-1-1-1-1-1-1-1-6-7-6-0-0-0-1-1-1-1-1-1-1-1-|
           * * * * * * * * * *         * * * * * * * * * *  






3:11


-------------------0--------------------------0----------|
-----------------6---6---6------------------6---6---6----|
---------------7-------7------------------7-------7------|
---------------------------------------------------------|
-0----3----0----------------0----3----0------------------|
-0----3----0----------------0----3----0------------------|


-------------------0--------------------------0----------|
-----------------6---6---6------------------6---6---6----|
---------------7-------7------------------7-------7------|
---------------------------------------------------------|
-0----3----0----------------0----3----0------------------|
-0----3----0----------------0----3----0------------------|







3:28


L
-///---///---///-------///---///--///--------///--///----///-------///---///---///-|
-10----15----13--------10----15----13--------10----15----13--------10----15----13--|
-----------------------------------------------------------------------------------|
-----------------------------------------------------------------------------------|
-----------------------------------------------------------------------------------|
-----------------------------------------------------------------------------------|

R
-------------------------------------------------------------------------------|
-------------------------------------------------------------------------------|
///---///--///-------///---///---///------///--///---///-------///---///---///-|
-7----12----10--------7----12----10--------7----12----10--------7----12----10--|
-------------------------------------------------------------------------------|
-------------------------------------------------------------------------------|






----------------------------------------------------|
----------------------------------------------------|
----------------------------------------------------|
---------------)(----------------------)(-----------|
-----------3-----------------------3----------------|
-7----1-------------4----7----1-------------4-------|



---------------------------------------------------------------------|
---------------------------------------------------------------------|
---------------------------------------------17-17-17-17-17-17-17-17-|
---------------)(----------------------)(-----X--X--X--X--X--X--X--X-|
-----------3-----------------------3-------/-15-15-15-15-15-15-15-15-|
-7----1-------------4----7----1--------------------------------------|






4:01


1
-----------------------------------------------------------------|
-----------------------------------------------------------------|
------------------_______________--------------------------------|
------------------)| | | | | | |(--------------------------------|
-5-5-5-5-5-5-5-5-5-5-5-5-5-5-5-5-5-5-5-5-5-5-5-5-5-5-5-5-5-5-5-5-|
-----------------------------------------------------------------|

2
------------------_______________---------------------------------|
------------------)| | | | | | |(---------------------------------|
1414141414141414141414141414141414141414141414141414141414141414--|
-x-x-x-x-x-x-x-x-x-x-x-x-x-x-x-x-x-x-x-x-x-x-x-x-x-x-x-x-x-x-x-x--|
1212121212121212121212121212121212121212121212121212121212121212--|
------------------------------------------------------------------|


1
-----------------------------------------------------------------|
-----------------------------------------------------------------|
------------------_______________--------------------------------|
------------------)| | | | | | |(--------------------------------|
-5-5-5-5-5-5-5-5-5-5-5-5-5-5-5-5-5-5-5-5-5-5-5-5-5-5-5-5-5-5-5-5-|
-----------------------------------------------------------------|

2
------------------_______________---------------------------------|
------------------)| | | | | | |(---------------------------------|
1414141414141414141414141414141414141414141414141414141414141414--|
-x-x-x-x-x-x-x-x-x-x-x-x-x-x-x-x-x-x-x-x-x-x-x-x-x-x-x-x-x-x-x-x--|
1212121212121212121212121212121212121212121212121212121212121212--|
------------------------------------------------------------------|


1
-----------------------------------------------------------------|
-----------------------------------------------------------------|
------------------_______________--------------------------------|
------------------)| | | | | | |(--------------------------------|
-5-5-5-5-5-5-5-5-5-5-5-5-5-5-5-5-5-5-5-5-5-5-5-5-5-5-5-5-5-5-5-5-|
-----------------------------------------------------------------|

2
------------------_______________---------------------------------|
------------------)| | | | | | |(---------------------------------|
1414141414141414141414141414141414141414141414141414141414141414--|
-x-x-x-x-x-x-x-x-x-x-x-x-x-x-x-x-x-x-x-x-x-x-x-x-x-x-x-x-x-x-x-x--|
1212121212121212121212121212121212121212121212121212121212121212--|
------------------------------------------------------------------|


1
-----------------------------------------------------------------|
-----------------------------------------------------------------|
------------------_______________--------------------------------|
------------------)| | | | | | |(--------------------------------|
-5-5-5-5-5-5-5-5-5-5-5-5-5-5-5-5-5-5-5-5-5-5-5-5-5-5-5-5-5-5-5-5-|
-----------------------------------------------------------------|

2
------------------_______________---------------------------------|
------------------)| | | | | | |(---------------------------------|
1414141414141414141414141414141414141414141414141414141414141414--|
-x-x-x-x-x-x-x-x-x-x-x-x-x-x-x-x-x-x-x-x-x-x-x-x-x-x-x-x-x-x-x-x--|
1212121212121212121212121212121212121212121212121212121212121212--|
------------------------------------------------------------------|




4:18

1
-----------------------------------------------------------------|
-----------------------------------------------------------------|
------------------_______________--------------------------------|
------------------)| | | | | | |(--------------------------------|
-5-5-5-5-5-5-5-5-5-5-5-5-5-5-5-5-5-5-5-5-5-5-5-5-5-5-5-5-5-5-5-5-|
-----------------------------------------------------------------|

2
------------------_______________---------------------------------|
------------------)| | | | | | |(---------------------------------|
1414141414141414141414141414141414141414141414141414141414141414--|
-x-x-x-x-x-x-x-x-x-x-x-x-x-x-x-x-x-x-x-x-x-x-x-x-x-x-x-x-x-x-x-x--|
1212121212121212121212121212121212121212121212121212121212121212--|
------------------------------------------------------------------|



1
-----------------------------------------------------------------|
-----------------------------------------------------------------|
------------------_______________--------------------------------|
------------------)| | | | | | |(--------------------------------|
-5-5-5-5-5-5-5-5-5-5-5-5-5-5-5-5-5-5-5-5-5-5-5-5-5-5-5-5-5-5-5-5-|
-----------------------------------------------------------------|

2
------------------_______________---------------------------------|
------------------)| | | | | | |(---------------------------------|
1414141414141414141414141414141414141414141414141414141414141414--|
-x-x-x-x-x-x-x-x-x-x-x-x-x-x-x-x-x-x-x-x-x-x-x-x-x-x-x-x-x-x-x-x--|
1212121212121212121212121212121212121212121212121212121212121212--|
------------------------------------------------------------------|




1
-----------------------------------------------------------------|
-----------------------------------------------------------------|
------------------_______________--------------------------------|
------------------)| | | | | | |(--------------------------------|
-5-5-5-5-5-5-5-5-5-5-5-5-5-5-5-5-5-5-5-5-5-5-5-5-5-5-5-5-5-5-5-5-|
-----------------------------------------------------------------|

2
------------------_______________---------------------------------|
------------------)| | | | | | |(---------------------------------|
1414141414141414141414141414141414141414141414141414141414141414--|
-x-x-x-x-x-x-x-x-x-x-x-x-x-x-x-x-x-x-x-x-x-x-x-x-x-x-x-x-x-x-x-x--|
1212121212121212121212121212121212121212121212121212121212121212--|
------------------------------------------------------------------|



1
-----------------------------------------------------------------|
-----------------------------------------------------------------|
------------------_______________--------------------------------|
------------------)| | | | | | |(--------------------------------|
-5-5-5-5-5-5-5-5-5-5-5-5-5-5-5-5-5-5-5-5-5-5-5-5-5-5-5-5-5-5-5-5-|
-----------------------------------------------------------------|

2
------------------_______________---------------------------------|
------------------)| | | | | | |(---------------------------------|
1414141414141414141414141414141414141414141414141414141414141414--|
-x-x-x-x-x-x-x-x-x-x-x-x-x-x-x-x-x-x-x-x-x-x-x-x-x-x-x-x-x-x-x-x--|
1212121212121212121212121212121212121212121212121212121212121212--|
------------------------------------------------------------------|



1
-----------------------------------------------------------------|
-----------------------------------------------------------------|
------------------_______________--------------------------------|
------------------)| | | | | | |(--------------------------------|
-5-5-5-5-5-5-5-5-5-5-5-5-5-5-5-5-5-5-5-5-5-5-5-5-5-5-5-5-5-5-5-5-|
-----------------------------------------------------------------|

2
------------------_______________---------------------------------|
------------------)| | | | | | |(---------------------------------|
1414141414141414141414141414141414141414141414141414141414141414--|
-x-x-x-x-x-x-x-x-x-x-x-x-x-x-x-x-x-x-x-x-x-x-x-x-x-x-x-x-x-x-x-x--|
1212121212121212121212121212121212121212121212121212121212121212--|
------------------------------------------------------------------|



1
-----------------------------------------------------------------|
-----------------------------------------------------------------|
------------------_______________--------------------------------|
------------------)| | | | | | |(--------------------------------|
-5-5-5-5-5-5-5-5-5-5-5-5-5-5-5-5-5-5-5-5-5-5-5-5-5-5-5-5-5-5-5-5-|
-----------------------------------------------------------------|

2
------------------_______________---------------------------------|
------------------)| | | | | | |(---------------------------------|
1414141414141414141414141414141414141414141414141414141414141414--|
-x-x-x-x-x-x-x-x-x-x-x-x-x-x-x-x-x-x-x-x-x-x-x-x-x-x-x-x-x-x-x-x--|
1212121212121212121212121212121212121212121212121212121212121212--|
------------------------------------------------------------------|


                                                 X4
---------------------17-13-15-13--------)   (--------------------|
---------------------------------17-15---------------------------|
-----------------------------------------------------------------|
-----------------------------------------------------------------|
-----------------------------------------------------------------|
-0---------------------------------------------------------------|    

Added On October 21st, 2014

SHARE

Comments

blog comments powered by Disqus

ADVERTISEMENT