Slipknot Tabs

Confessions Solo

2 versions

TAB

            Confessions Tab by Slipknot


READ! PLEASE!  doesn't sound equal because i don't 
their effects, and it's played with the slipknot(the cd) tune not with EADGBE 
(i have problems with the ftp, will be upload soon tonigh 8 of september)

Mmmm I've seen a lot of tabs about this solo,
all of them sucks, but!
I decided to tab it out, it's almost perfect for sure
try to play it slow.
I guarrante? the quality of this solo, because I only listen to slipknot
And here is some songs u must know about secret slipknot songs:

With andrews: Coleslaw(Demo) that evolves in (like pokemons yes) The Shape
With andrews: Carve -----> Before I forget
Scream instead of don't get close in the japanesse version of the cd
Vol 3. The Subliminal Verses

So let's get started
I know how to play it in three tunes so I select the easier way to play it

== means that while ringing the string play it again
xbx = bend the string till x, where x is a fret, for example 5b7
xsx = slide

EADGBE Always tune (Not always for slipknot)

2:41
--------------------------------------------|
--------------------------------------------|
--------------------------------------------|
----------0---------------------------------|
-1~----1-----1------------------------------|
-----------------1~---1h3h5po3--3h5h6po5----|

2:46
----------------------------------------------------|
----------------------------------------------------|
----------------------------------------------------|
----------------------------------------------------|
-------------8---------10po8---------11b12-10-8-----|
--8h10==10------10po8---------10po8-------------10~-|

2:49
-------------------------------------------------------------------------|
-------------------------------------------------------------------------|
-----------------------------10-12=12b13=b13b14-    

Added On December 12th, 2013

SHARE

Comments

blog comments powered by Disqus

VERSIONS

ADVERTISEMENT