Slipknot Tabs

Dogfish Rising

1 versions

TAB

            Youll have to have your reverb and neck pickup on and tone knob rolled to 1

Riff A
e------------15-15-15-15-------------------12-12-12-12---------|
B------------15-15-15-15-------------------12-12-12-12---------|
G------------15-15-15-15-------------------12-12-12-12---------|        x4
D-0-0-0---------------------------0-0-0------------------------|
A-0-0-0---------------------------0-0-0------------------------|
D-0-0-0---------------------------0-0-0------------------------|

Riff B
e-------------------------|
B-------------------------|
G-------------------------|              x4
D-0-0-0-3-3---------------|
A-0-0-0-3-3---------------|
D-0-0-0-3-3---------------|    

Added On December 16th, 2013

SHARE

Comments

blog comments powered by Disqus

ADVERTISEMENT