Slipknot Tabs

Gehenna

1 versions

TAB

            Slipknot - Gehenna
Tab: Billybusa (me)
Tuning: Drop B

Guitar 1:
C#||---------------------------------|--------------------------|
G#||---------------------------------|--------------------------|
E ||---------------------------------|--------------------------| x2
B ||---------------------------------|--------1-----------0-----|
F#||---------------------------------|-----1-----1-----0-----0--|
B ||--/17--16--16--16S--8--9--9S--1--|--------------0-----------|

|---------------------------------|--------------------------|
|---------------------------------|--------------------------|
|---------------------------------|--------------------------|
|---------------------------------|--------1-----------0-----|
|---------------------------------|-----1-----1-----0-----0--|
|--/17--16--16--16S--8--9--9S--1--|--------------0-----------|
|
|Guitar 2:                                                     x2
|---------------------------------|--------------------------|
|---------------------------------|--------------------------|
|---------------------------------|--------------------------|
|--/17--16--16--16S--8--9--9S--1--|--------1-----------0-----|
|---------------------------------|-----1-----1-----0-----0--|
|--/17--16--16--16S--8--9--9S--1--|--------------0-----------|

Guitar 1 & 2:
|-------------------------------|--------------------------|
|-------------------------------|--------------------------|
|-------------------------------|--------------------------|
|--/17--16--16--16--8--9--9--1--|--------1-----0-----0-----| x4
|--/17--16--16--16--8--9--9--1--|-----1-----1--0--0-----0--|
|--/17--16--16--16--8--9--9--1--|--------------0-----------|

|-------------------|
|-------------------|
|-------------------|
|-------------------|
|--0~---------------|
|--0~---------------|

|-------------------------------|--------------------------|
|-------------------------------|--------------------------|
|-------------------------------|--------------------------|
|--/17--16--16--16--8--9--9--1--|--------1-----0-----0-----| x4
|-------------------8--9--9--1--|-----1-----1--0--0-----0--|
|--/17--16--16--16--8--9--9--1--|--------------0-----------|

|-------------------|--------------------|-------------------|
|-------------------|--------------------|-------------------|
|-------------------|--------------------|-------------------|
|-------------------|--------------------|-------------------|
|--0----------------|--7--------6--------|--0----------------|
|--0----------------|--------------------|--0----------------|
|
|Guitar 2:
|-------------------|--------------------|-------------------|
|-------------------|--------------------|-------------------|
|-------------------|--------------------|-------------------|
|-------------------|--------------------|-------------------|
|--0----------------|--0--------0--------|--0----------------|
|--0----------------|--1--------0--------|--0----------------|

|---------------------||
|---------------------||
|---------------------||
|---------------------||
|--7--------10--------||
|---------------------||
|
|--------------------||
|--------------------||
|--------------------||
|--------------------||
|--0--------0--------||
|--0--------1--------||

Guitar 1:
|---------------------------------------------------|--------------------|
|---------------------------------------------------|--------------------|
|--3/--12-12-12-12-12-12-12-12-12-12-12-12-12\------|--------------------|
|---------------------------------------------------|--------------------|
|--1/--10-10-10-10-10-10-10-10-10-10-10-10-10\------|--7--------6--------|
|---------------------------------------------------|--------------------|
|
|Guitar 2:
|---------------------------------------------------|--------------------|
|---------------------------------------------------|--------------------|
|---------------------------------------------------|--------------------|
|-------1--1--1--1--1--1--1--1--1--1--1--1--1\------|--------------------|
|-------1--1--1--1--1--1--1--1--1--1--1--1--1\------|--0--------0--------|
|-------1--1--1--1--1--1--1--1--1--1--1--1--1\------|--1--------0--------|

Guitar 1:
|---------------------------------------------------|--------------------|
|---------------------------------------------------|--------------------|
|--3/--12-12-12-12-12-12-12-12-12-12-12-12-12\------|--------------------|
|---------------------------------------------------|--------------------|
|--1/--10-10-10-10-10-10-10-10-10-10-10-10-10\------|--7--------10--------|
|---------------------------------------------------|--------------------|
|
|Guitar 2:
|---------------------------------------------------|--------------------|
|---------------------------------------------------|--------------------|
|---------------------------------------------------|--------------------|
|-------1--1--1--1--1--1--1--1--1--1--1--1--1\------|--------------------|
|-------1--1--1--1--1--1--1--1--1--1--1--1--1\------|--0--------0--------|
|-------1--1--1--1--1--1--1--1--1--1--1--1--1\------|--0--------1--------|

Guitar 1:
|---------------------------------------------------|--------------------|
|---------------------------------------------------|--------------------|
|--3/--12-12-12-12-12-12-12-12-12-12-12-12-12\------|--------------------|
|---------------------------------------------------|--------------------|
|--1/--10-10-10-10-10-10-10-10-10-10-10-10-10\------|--7--------6--------|
|---------------------------------------------------|--------------------|
|
|Guitar 2:
|---------------------------------------------------|--------------------|
|---------------------------------------------------|--------------------|
|---------------------------------------------------|--------------------|
|-------1--1--1--1--1--1--1--1--1--1--1--1--1\------|--------------------|
|-------1--1--1--1--1--1--1--1--1--1--1--1--1\------|--0--------0--------|
|-------1--1--1--1--1--1--1--1--1--1--1--1--1\------|--1--------0--------|

Guitar 1:
|---------------------------------------------------------------------|
|---------------------------------------------------------------------|
|--3/--14-14-14-14-14-14-14-14-14-14-14-14-14-14-14-14-14-14-14-14-14-|
|---------------------------------------------------------------------|
|--1/--12-12-12-12-12-12-12-12-12-12-12-12-12-12-12-12-12-12-12-12-12-|
|---------------------------------------------------------------------|
|
|Guitar 2:
|---------------------------------------------------------------------|
|---------------------------------------------------------------------|
|---------------------------------------------------------------------|
|-------1--1--1--1--1--1--1--1--1--1--1--1--1--1--1--1--1--1--1--1--1-|
|-------1--1--1--1--1--1--1--1--1--1--1--1--1--1--1--1--1--1--1--1--1-|
|-------1--1--1--1--1--1--1--1--1--1--1--1--1--1--1--1--1--1--1--1--1-|

Guitar 1:
|--------------------------------------------------------------------------|
|--------------------------------------------------------------------------|
|--14-14-14-14-14-14-14-14-14-14-14-14-14-14-14-14-14-14-14-14-14-14-14-14-|
|--------------------------------------------------------------------------|
|--12-12-12-12-12-12-12-12-12-12-12-12-12-12-12-12-12-12-12-12-12-12-12-12-|
|--------------------------------------------------------------------------|
|
|Guitar 2:
|------------------------------------------------------------------------|
|------------------------------------------------------------------------|
|------------------------------------------------------------------------|
|-1--1--1--1--1--1--1--1--1--1--1--1--1--1--1--1--1--1--1--1--1--1--1--1-|
|-1--1--1--1--1--1--1--1--1--1--1--1--1--1--1--1--1--1--1--1--1--1--1--1-|
|-1--1--1--1--1--1--1--1--1--1--1--1--1--1--1--1--1--1--1--1--1--1--1--1-|

Pre Chorus:

Guitar 1 & 2:
------------------------|-------------------------|--------------------------|
------------------------|-------------------------|--------------------------|
------------------------|-------------------------|--------------------------|
--3----3----3--3--3--6--|-----6--6--0----0--0--0--|--3--3--3--3--3--3--3--3--|
--3----3----3--3--3--6--|-----6--6--0----0--0--0--|--3--3--3--3--3--3--3--3--|
--3----3----3--3--3--6--|-----6--6--0----0--0--0--|--3--3--3--3--3--3--3--3--|

--------------------------|
--------------------------|
--------------8--8--8--7--|
--6--6--6--6--------------|
--6--6--6--6--6--6--6--5--|
--6--6--6--6--------------|

Chorus:
----------------------------|------------------------|
----------------------------|------------------------|
-------12--12--12-----------|------------------------|
--0----------------8--0--8--|-----8--8--3----1----3--|
--0----10--10--10--8--0--8--|-----8--8--3----1----3--|
--0----------------8--0--8--|-----8--8--3----1----3--|
                                                        x4
------------------------|-------------------------||
------------------------|-------------------------||
------------------------|-------------------------||
------------------------|-------------------------||
--0----0----0--0--0--3--|-----3--3--6----6--6--6--||
--0----0----0--0--0--3--|-----3--3--6----6--6--6--||

Clean part before the solo:
-----------------------4--|--------------------------|
-----------8-----3--4-----|--------8--------9--------|
--------5-----5-----------|--7--5-----8--7-----7--5--|
--7--9--------------------|--------------------------|
--------------------------|--------------------------|
--------------------------|--------------------------|

--------------------------|
--8--------9--------8-----|
-----8--7-----7--5-----7--|
--------------------------|
--------------------------|
--------------------------|

I haven’t figured out the solo yet sorry :(

|-------------------|
|-------------------|
|-------------------|
|-------------------|
|--0~---------------|
|--0~---------------|

Guitar 1 & 2:
-------------------|--------------------------|--------------------------|
-------------------|--------------------------|--------------------------|
-------------------|--------------------------|--------------------------|
-------------------|-----3--3--------------6--|--------------------------|
-------------------|--3--3--3--3--3--3--3--6--|--6--6--6--0--0--0--0--0--|
-------------------|--3--3--3--3--3--3--3--6--|--6--6--6--0--0--0--0--0--|
                      .        Pm-------->       Pm-------------------->

--------------------------|--------------------------|
--------------------------|--------------------------|
--------------------------|--------------8--8--8--7--|
--------------------------|--------------------------|
--3--3--3--3--3--3--3--6--|--6--6--6--6--6--6--6--5--|
--3--3--3--3--3--3--3--6--|--6--6--6--6--------------|
  Pm---------------------------------->

--------------------------|--------------------------|
--------------------------|--------------------------|
--------------------------|--------------------------|
--------------------------|--------------------------|
--3--3--3--3--3--3--3--6--|--6--6--6--0--0--0--0--0--|
--3--3--3--3--3--3--3--6--|--6--6--6--0--0--0--0--0--|
Pm------------------------------------------------->

--------------------------|--------------------------||
--------------------------|--------------------------||
--------------------------|--------------8--8--8--7--||
--------------------------|--------------------------||
--3--3--3--3--3--3--3--6--|--6--6--6--6--6--6--6--5--||
--3--3--3--3--3--3--3--6--|--6--6--6--6--------------||
Pm------------------------------------->

Chorus:
----------------------------|------------------------|
----------------------------|------------------------|
-------12--12--12-----------|------------------------|
--0----------------8--0--8--|-----8--8--3----1----3--|
--0----10--10--10--8--0--8--|-----8--8--3----1----3--|
--0----------------8--0--8--|-----8--8--3----1----3--|
                                                        x10
------------------------|-------------------------||
------------------------|-------------------------||
------------------------|-------------------------||
------------------------|-------------------------||
--0----0----0--0--0--3--|-----3--3--6----6--6--6--||
--0----0----0--0--0--3--|-----3--3--6----6--6--6--||

|-------------------|
|-------------------|
|-------------------|
|-------------------|
|--0~---------------|
|--0~---------------|

That’s it, again sorry for not tabbing out the solo and the lead part at the end

if I ever tab the solo I'll just add it to the tab    

Added On December 16th, 2013

SHARE

Comments

blog comments powered by Disqus

ADVERTISEMENT