Slipknot Tabs

Goodbye

1 versions

TAB

            SLIPKNOT


GOODBYE

B-F#-B-E-G#-C#


TABBED BY andherembrace




arranged for gtr
------------------------------------------------|
------------------------------------------------|
11-----14-----------------11-----14-------------|
---------------12-------------------------12----|
------------------------------------------------|
------------------------------------------------|




0:55


1
----------------------------------------------------------------------------------------------|
----------------------------------------------------------------------------------------------|
11-----14-----------------11-----14------------------11----14----------------11----14---------|
---------------12-------------------------12----------------------12------------------------12|
----------------------------------------------------------------------------------------------|
----------------------------------------------------------------------------------------------|

2
17----------19\14---------17----------21\14---------17------------16-----------14-----------|
--------------------------------------------------------------------------------------------|
--------------------------------------------------------------------------------------------|
--------------------------------------------------------------------------------------------|
--------------------------------------------------------------------------------------------|
--------------------------------------------------------------------------------------------|




1:16

arranged for gtr
                                       ][
-----------------------------------------------------------------------17-------------|
--------------------------------------------------------------------------------------|
-9-----11-----14---13------14--------------9---------11-----13---14-16----------9-11--|
----------------------------------12--------------------------------------12----------|
--------------------------------------------------------------------------------------|
--------------------------------------------------------------------------------------|


                                       ][
------------------------------------------------------------------------------------|
-----------------------------------------------^------------------------------------|
-9-----11-----13----------14--------------9--9--11-----11-----13---14---14----------|
---------------------------------12-------------------------------------------------|
------------------------------------------------------------------------------------|
------------------------------------------------------------------------------------|


2:02

1
---------------------------------------------------------|
---------------------------------------------------------|
11-----14-------7---------11-----14-------7-------14-----|
---------------------------------------------------------|
---------------------------------------------------------|
---------------------------------------------------------|


2
17-------------16---------17----------21\14--------------|
---------------------------------------------------------|
---------------------------------------------------------|
---------------------------------------------------------|
---------------------------------------------------------|
---------------------------------------------------------|









2:12

1
------------------------------------------------------|
------------------------------------------------------|
------------------------------------------------------|
------------------------------------------------------|
------------------------------1--0--8--7--1--0--8--7--|
-0-----12~~~~\-0-----12~~~~\--1--0--8--7--1--0--8--7--|

2
------------------------------------------------------|
------------------------------------------------------|
------------------------------------------------------|
-----------------------------------------/8-7-/13-12--|
-5-----12------5-----12-----/6--5-/10--9--------------|
------------------------------------------------------|



2:24


1
--------------------------------------------------------------------------|
--------------------------------------------------------------------------|
--------------------------------------------------------------------------|
--------------------------------------------------------------------------|
-1-1-1-1-1---1-1-1-1-1---1-1-1-1-1---1-1-1-1-1------------0--13--10-12----|
-1-1-1-1-1-0-1-1-1-1-1-0-1-1-1-1-1-0-1-1-1-1-1-0-0-12~~~~-0--13--10-12----|
 * * * * *   * * * *  *  * * * * *   * * * * * *

2
--------------------------------------------------------------------------|
-///--------------------///-----------------------------------------------|
-15---------------------14-----------11~~~--------------------------------|
--------------------------------------------------------------------------|
---------------------------------------------------12-----0--13--10-12----|
-------------------------------------------------0--------0--13--10-12----|



1
-------------------------------------------------------------------------|
-------------------------------------------------------------------------|
-------------------------------------------------------------------------|
-------------------------------------------------------------------------|
1--0--------1--0--------1-1-1-1-1---1-1-1-1-1---1-1-1-1-1---1-1-1-1-1----|
1--0--8--7~-1--0--8--7~-1-1-1-1-1-0-1-1-1-1-1-0-1-1-1-1-1-0-1-1-1-1-1-0--|
                        * * * * * * * * * * * * * * * * * * * * * * * * 

2
-------------------------------------------------------------------------|
---------------------------///--------------------///--------------------|
---------------------------15---------------------14-----------11~~~-----|
--------------/8-7-/13-12------------------------------------------------|
-/6--5-/10--9------------------------------------------------------------|
-------------------------------------------------------------------------|




2:45


1
---------------------------------------------|
---------------------------------------------|
------------10-101010------------------------|
-------------x--x-x-x------------------------|
-3--3-3-3----8--8-8-8---3--3-3-3-------------|
-3--3-3-3-0-----------0-3--3-3-3-0-7--8-8-7--|

2
-----------------------------------------------------------------------|
-----------------------------------------------------------------------|
-5--5-5-5--10-101010---5-5-5-51212121214141414121212121212101010101010-|
-x--x-x-x---X--X-X-X---X-X-X-X-X-X-X-X-X-X-X-X-X-X-X-X-X-x-X-X-X-X-X-x-|
-3--3-3-3---8--8-8-8---3-3-3-31010101012121212101010101010-8-8-8-8-8-8-|
----------0----------0-------------------------------------------------|


1
---------------------------------------------|
---------------------------------------------|
---------------------------------------------|
---------------------------------------------|
-1--1-1-1---1--1-1-1---1--1-1-1---1--1-1-1---|
-1--1-1-1-0-1--1-1-1-0-1--1-1-1-0-1--1-1-1-0-|

2
---------------------------------------------|
---------------------------------------------|
---------------------------------------------|
---------------------------------------------|
-1--1-1-1-0-1--1-1-1-0-1--1-1-1-0-1--1-1-1-0-|
---------------------------------------------|








1
---------------------------------------------|
---------------------------------------------|
------------10-101010------------------------|
-------------x--x-x-x------------------------|
-3--3-3-3----8--8-8-8---3--3-3-3-------------|
-3--3-3-3-0-----------0-3--3-3-3-0-7--8-8-7--|

2
-----------------------------------------------------------------------|
-----------------------------------------------------------------------|
-5--5-5-5--10-101010---5-5-5-51212121214141414121212121212101010101010-|
-x--x-x-x---X--X-X-X---X-X-X-X-X-X-X-X-X-X-X-X-X-X-X-X-X-x-X-X-X-X-X-x-|
-3--3-3-3---8--8-8-8---3-3-3-31010101012121212101010101010-8-8-8-8-8-8-|
----------0----------0-------------------------------------------------|



1
---------------------------------------------|
---------------------------------------------|
---------------------------------------------|
---------------------------------------------|
-1--1-1-1---1--1-1-1---1--1-1-1---1--1-1-1---|
-1--1-1-1-0-1--1-1-1-0-1--1-1-1-0-1--1-1-1-0-|

2
---------------------------------------------|
---------------------------------------------|
---------------------------------------------|
---------------------------------------------|
-1--1-1-1-0-1--1-1-1-0-1--1-1-1-0-1--1-1-1-0-|
---------------------------------------------|





1
---------------------------------------------|
---------------------------------------------|
------------10-101010------------------------|
-------------x--x-x-x------------------------|
-3--3-3-3----8--8-8-8---3--3-3-3-------------|
-3--3-3-3-0-----------0-3--3-3-3-0-7--8-8-7--|

2
-----------------------------------------------------------------------|
-----------------------------------------------------------------------|
-5--5-5-5--10-101010---5-5-5-51212121214141414121212121212101010101010-|
-x--x-x-x---X--X-X-X---X-X-X-X-X-X-X-X-X-X-X-X-X-X-X-X-X-x-X-X-X-X-X-x-|
-3--3-3-3---8--8-8-8---3-3-3-31010101012121212101010101010-8-8-8-8-8-8-|
----------0----------0-------------------------------------------------|



1
---------------------------------------------|
---------------------------------------------|
---------------------------------------------|
---------------------------------------------|
-1--1-1-1---1--1-1-1---1--1-1-1---1--1-1-1---|
-1--1-1-1-0-1--1-1-1-0-1--1-1-1-0-1--1-1-1-0-|

2
---------------------------------------------|
---------------------------------------------|
---------------------------------------------|
---------------------------------------------|
-1--1-1-1-0-1--1-1-1-0-1--1-1-1-0-1--1-1-1-0-|
---------------------------------------------|







1
---------------------------------------------|
---------------------------------------------|
------------10-101010------------------------|
-------------x--x-x-x------------------------|
-3--3-3-3----8--8-8-8---3--3-3-3-------------|
-3--3-3-3-0-----------0-3--3-3-3-0-7--8-8-7--|

2
----------------------------------------------------------------------------------|
----------------------------------------------------------------------------------|
-10101010101010101010101010101010-5-5-5-51212121214141414121212121212101010101010-|
--X-X-X-X-X-X-X-X-X-X-X-X-X-X-X-X-X-X-X-X-X-X-X-X-X-X-X-X-X-X-X-X-X-X-X-X-X-X-x-x-|
--8-8-8-8-8-8-8-8-8-8-8-8-8-8-8-8-3-3-3-31010101012121212101010101010-8-8-8-8-8-8-|
----------------------------------------------------------------------------------|


1
---------------------------------------------|
---------------------------------------------|
---------------------------------------------|
---------------------------------------------|
-1--1-1-1---1--1-1-1---1--1-1-1---1--1-1-1---|
-1--1-1-1-0-1--1-1-1-0-1--1-1-1-0-1--1-1-1-0-|

2
---------------------------------------------|
---------------------------------------------|
---------------------------------------------|
---------------------------------------------|
-1--1-1-1-0-1--1-1-1-0-1--1-1-1-0-1--1-1-1-0-|
---------------------------------------------|






3:27

1
---------------------------------------------------------|
---------------------------------------------------------|
---------------------------------------------------------|
---------------------------------------------------------|
-1---1---1---1---1---1-------------0--2--3---------------|
-1---1---1---1---1---1--/7--8--8-7-0--2--3--/7--8--8-7---|

2
---------------------------------------------------------|
---------------------------------------------------------|
---------------------------------------------------------|
---------------------------------------------------------|
-1---1---1---1---1---1-------------0--2--3---7--8--8-7---|
-1---1---1---1---1---1--/7--8--8-7-----------------------|






1
--------------------------------------------------|
--------------------------------------------------|
--------------------------------------------------|
--------------------------------------------------|
-1-1-1-1-1---1-1-1-1-1---1-1-1-1-1---1-1-1-1-1----|
-1-1-1-1-1-0-1-1-1-1-1-0-1-1-1-1-1-0-1-1-1-1-1-0--|
 * * * * * * * * * * * * * * * * * * * * * * * * 
2
--------------------------------------------------|
--------------------------------------------------|
--------------------------------------------------|
------------------------------------/10--8--7-----|
-/10--------12-------13-12-13---------------------|
--------------------------------------------------|





1
-------------------------------------------------------------------------|
-------------------------------------------------------------------------|
-------------------------------------------------------------------------|
-------------------------------------------------------------------------|
1--0--8--7--1--0--8--7--1-1-1-1-1---1-1-1-1-1---1-1-1-1-1---1-1-1-1-1----|
1--0--8--7--1--0--8--7--1-1-1-1-1-0-1-1-1-1-1-0-1-1-1-1-1-0-1-1-1-1-1-0--|
                        * * * * * * * * * * * * * * * * * * * * * * * * 

2
-------------------------------------------------------------------------|
---------------------------///--------------------///--------------------|
---------------------------15---------------------14-----------11~~~-----|
--------------/8-7-/13-12------------------------------------------------|
-/6--5-/10--9------------------------------------------------------------|
-------------------------------------------------------------------------|




3:53

1
------------------------------------------------------------------------|
------------------------------------------------------------------------|
------------------------------------------------------------------------|
------------------------------------------------------------------------|
-0--2--3---------------1-1-1-1-1---1-1-1-1-1---1-1-1-1-1---1-1-1-1-1----|
-0--2--3--/7--8--8-7---1-1-1-1-1-0-1-1-1-1-1-0-1-1-1-1-1-0-1-1-1-1-1-0--|
                       * * * * * * * * * * * * * * * * * * * * * * * * 
2                                     _____
-------------------------)-(---)~~~--/     \------20---------------------------|
-----------------------20----20----18-20-18-17-18----18-17---------------------|
-----------------------------------------------------------19~~17-19-20-19-17~~|
-------------------------------------------------------------------------------|
-0--2--3---7--8--8-7-----------------------------------------------------------|
-------------------------------------------------------------------------------|
                                                                    /




1
-------------------------------------------------------------------------|
-------------------------------------------------------------------------|
-------------------------------------------------------------------------|
-------------------------------------------------------------------------|
1--0--8--7--1--0--8--7--1-1-1-1-1---1-1-1-1-1---1-1-1-1-1---1-1-1-1-1----|
1--0--8--7--1--0--8--7--1-1-1-1-1-0-1-1-1-1-1-0-1-1-1-1-1-0-1-1-1-1-1-0--|
                        * * * * * * * * * * * * * * * * * * * * * * * * 

2
-------------------------------------------------------------------------|
-------------------------------------------------///---------------------|
---------------------------15~~~~-----------------14-----------11~~~-----|
--------------/8-7-/13-12------------------------------------------------|
-/6--5-/10--9------------------------------------------------------------|
-------------------------------------------------------------------------|





----------------------------------------------------------------------------|
----------------------------------------------------------------------------|
----------------------------------------------------------------------------|
-0--------------------------------------------------------------------------|
-0--------------------------------------------------------------------------|
-0--------------------------------------------------------------------------|




--------------------------------------------------------|
--------------------------------------------------------|
--------------------------------------------------------|
--------------------------------------------------------|
-1--1--1------------------7--7--7-----------------------|
-1--1--1-5555444477775555-7--7--7-88887777101010108888--|


-------------------------------------|
-------------------------------------|
-------------------------------------|
-------------------------------------|
-1--1--1------------------7--7--7-7--|
-1--1--1-5555444477775555-7--7--7-7--|    

Added On October 11th, 2014

SHARE

Comments

blog comments powered by Disqus

ADVERTISEMENT