Slipknot Tabs

Hooked Through The Mouth

1 versions

TAB

            Hooked Through The Mouth Tab by Slipknot


Slipknot - Hooked Through The Mouth
Submitted By: Sqweeky
EMail: Blindside831@aol.com

Hidden Bonus Track (Only On Import CD "Iowa")

Wait About 5 Minutes after the song "Iowa" is over

Tune to B

P.M.......................................           (P.M= Palm Mute)
-----------------------------------------|
-----------------------------------------|
-----------------------------------------|
-----------------------------------------|
1-0-0-1-0-0-1-0-1-0-0-1-0-0-1-0----------|
1-0-0-1-0-0-1-0-1-0-0-1-0-0-1-0----------|

Riff 1
-----------------------------------------------|
-----------------------------------------------|
-----------------------------------------------|
----------1-1-1-1--0-0-0-0--6-6-6-6--5-5-5-5---|
-----------------------------------------------|
-1-0-0-0---------------------------------------|

-----------------------------------------------------|
-----------------------------------------------------|
-----------------------------------------------------|
------------6-6-6-6--5-5-5-5---10-10-10-10--9-9-9-9--|
-----------------------------------------------------|
-2-1-1-1---------------------------------------------|

Repeat Riff 1


Riff 2
----------------------------------------|
----------------------------------------|
----------------------------------------|
----------------------------------------|
----------------------------------------|
1-0-6-0--1-0-7-0--1-0-8-0--1-0-7-0------|

Repeat Riff 2 four times

Let Ring...
-----------|
-----------|
-----------|
-0---------|
-0---------|
-0---------|    

Added On December 12th, 2013

SHARE

Comments

blog comments powered by Disqus

ADVERTISEMENT