Slipknot Tabs

If Rain Is What You Want

1 versions

TAB

            SLIPKNOT 

IF RAIN IS WHAT YOU WANT


B-F#-B-E-G#-C#


TABBED BY andherembrace





0:17

-----------------------------------------------------------------------------------------|
-----------------------------------------------------------------------------------------|
----14---14-15-14---14----14---14-15-14---14----14---14-15-14---14----14---14-15-14---15-|
-----------------------------------------------------------------------------------------|
-12----12--------12----12----12--------12----13----13--------13----13----13--------13----|
-----------------------------------------------------------------------------------------|


-----------------------------------------------------------------------------------------|
-----------------------------------------------------------------------------------------|
----14---14-15-14---14----14---14-15-14---14----14---14-15-14---14----14---14-15-14---15-|
-----------------------------------------------------------------------------------------|
-12----12--------12----12----12--------12----13----13--------13----13----13--------13----|
-----------------------------------------------------------------------------------------|


-----------------------------------------------------------------------------------------|
-----------------------------------------------------------------------------------------|
----14---14-15-14---14----14---14-15-14---14----14---14-15-14---14----14---14-15-14---15-|
-----------------------------------------------------------------------------------------|
-12----12--------12----12----12--------12----13----13--------13----13----13--------13----|
-----------------------------------------------------------------------------------------|


0:40


L
-----------------------------------------------------------------------------------------|
-----------------------------------------------------------------------------------------|
----14---14-15-14---14----14---14-15-14---14----14---14-15-14---14----14---14-15-14---15-|
-----------------------------------------------------------------------------------------|
-12----12--------12----12----12--------12----13----13--------13----13----13--------13----|
-----------------------------------------------------------------------------------------|

R
-------------------------------------------------------------------------------------|
-------------------------------------------------------------------------------------|
---7-----7-8-7-----7------7-----7-8-7----7-----7-----7-8-7----7-----7-----7-8-7-----7|
-------------------------------------------------------------------------------------|
5-----5---------5-----5------5--------5-----6-----6--------6-----6-----6---------6---|
-------------------------------------------------------------------------------------|



L
-----------------------------------------------------------------------------------------|
-----------------------------------------------------------------------------------------|
----14---14-15-14---14----14---14-15-14---14----14---14-15-14---14----14---14-15-14---15-|
-----------------------------------------------------------------------------------------|
-12----12--------12----12----12--------12----13----13--------13----13----13--------13----|
-----------------------------------------------------------------------------------------|


R
-------------------------------------------------------------------------------------|
-------------------------------------------------------------------------------------|
---7-----7-8-7-----7------7-----7-8-7----7-----7-----7-8-7----7-----7-----7-8-7-----7|
-------------------------------------------------------------------------------------|
5-----5---------5-----5------5--------5-----6-----6--------6-----6-----6---------6---|
-------------------------------------------------------------------------------------|



L
-----------------------------------------------------------------------------------------|
-----------------------------------------------------------------------------------------|
----14---14-15-14---14----14---14-15-14---14----14---14-15-14---14----14---14-15-14---15-|
-----------------------------------------------------------------------------------------|
-12----12--------12----12----12--------12----13----13--------13----13----13--------13----|
-----------------------------------------------------------------------------------------|

R
-------------------------------------------------------------------------------------|
-------------------------------------------------------------------------------------|
---7-----7-8-7-----7------7-----7-8-7----7-----7-----7-8-7----7-----7-----7-8-7-----7|
-------------------------------------------------------------------------------------|
5-----5---------5-----5------5--------5-----6-----6--------6-----6-----6---------6---|
-------------------------------------------------------------------------------------|



L
-----------------------------------------------------------------------------------------|
-----------------------------------------------------------------------------------------|
----14---14-15-14---14----14---14-15-14---14----14---14-15-14---14----14---14-15-14---15-|
-----------------------------------------------------------------------------------------|
-12----12--------12----12----12--------12----13----13--------13----13----13--------13----|
-----------------------------------------------------------------------------------------|

R
-------------------------------------------------------------------------------------|
-------------------------------------------------------------------------------------|
---7-----7-8-7-----7------7-----7-8-7----7-----7-----7-8-7----7-----7-----7-8-7-----7|
-------------------------------------------------------------------------------------|
5-----5---------5-----5------5--------5-----6-----6--------6-----6-----6---------6---|
-------------------------------------------------------------------------------------|




L
-----------------------------------------------------------------------------------------|
-----------------------------------------------------------------------------------------|
----14---14-15-14---14----14---14-15-14---14----14---14-15-14---14----14---14-15-14---15-|
-----------------------------------------------------------------------------------------|
-12----12--------12----12----12--------12----13----13--------13----13----13--------13----|
-----------------------------------------------------------------------------------------|

R
-------------------------------------------------------------------------------------|
-------------------------------------------------------------------------------------|
---7-----7-8-7-----7------7-----7-8-7----7-----7-----7-8-7----7-----7-----7-8-7-----7|
-------------------------------------------------------------------------------------|
5-----5---------5-----5------5--------5-----6-----6--------6-----6-----6---------6---|
-------------------------------------------------------------------------------------|



L
-----------------------------------------------------------------------------------------|
-----------------------------------------------------------------------------------------|
----14---14-15-14---14----14---14-15-14---14----14---14-15-14---14----14---14-15-14---15-|
-----------------------------------------------------------------------------------------|
-12----12--------12----12----12--------12----13----13--------13----13----13--------13----|
-----------------------------------------------------------------------------------------|


R
-------------------------------------------------------------------------------------|
-------------------------------------------------------------------------------------|
---7-----7-8-7-----7------7-----7-8-7----7-----7-----7-8-7----7-----7-----7-8-7-----7|
-------------------------------------------------------------------------------------|
5-----5---------5-----5------5--------5-----6-----6--------6-----6-----6---------6---|
-------------------------------------------------------------------------------------|




L
-----------------------------------------------------------------------------------------|
-----------------------------------------------------------------------------------------|
----14---14-15-14---14----14---14-15-14---14----14---14-15-14---14----14---14-15-14---15-|
-----------------------------------------------------------------------------------------|
-12----12--------12----12----12--------12----13----13--------13----13----13--------13----|
-----------------------------------------------------------------------------------------|


R
-------------------------------------------------------------------------------------|
-------------------------------------------------------------------------------------|
---7-----7-8-7-----7------7-----7-8-7----7-----7-----7-8-7----7-----7-----7-8-7-----7|
-------------------------------------------------------------------------------------|
5-----5---------5-----5------5--------5-----6-----6--------6-----6-----6---------6---|
-------------------------------------------------------------------------------------|



L
-----------------------------------------------------------------------------------------|
-----------------------------------------------------------------------------------------|
----14---14-15-14---14----14---14-15-14---14----14---14-15-14---14----14---14-15-14---15-|
-----------------------------------------------------------------------------------------|
-12----12--------12----12----12--------12----13----13--------13----13----13--------13----|
-----------------------------------------------------------------------------------------|


R
-------------------------------------------------------------------------------------|
-------------------------------------------------------------------------------------|
---7-----7-8-7-----7------7-----7-8-7----7-----7-----7-8-7----7-----7-----7-8-7-----7|
-------------------------------------------------------------------------------------|
5-----5---------5-----5------5--------5-----6-----6--------6-----6-----6---------6---|
-------------------------------------------------------------------------------------|




L
-----------------------------------------------------------------------------------------|
-----------------------------------------------------------------------------------------|
----14---14-15-14---14----14---14-15-14---14----14---14-15-14---14----14---14-15-14---15-|
-----------------------------------------------------------------------------------------|
-12----12--------12----12----12--------12----13----13--------13----13----13--------13----|
-----------------------------------------------------------------------------------------|

R
-------------------------------------------------------------------------------------|
-------------------------------------------------------------------------------------|
---7-----7-8-7-----7------7-----7-8-7----7-----7-----7-8-7----7-----7-----7-8-7-----7|
-------------------------------------------------------------------------------------|
5-----5---------5-----5------5--------5-----6-----6--------6-----6-----6---------6---|
-------------------------------------------------------------------------------------|






L
---------------------------------------------------------------------------|
---------------------------------------------------------------------------|
----14---14-15-14---14----14---14-15-14---14----14---14-15-14---14----14---|
---------------------------------------------------------------------------|
-12----12--------12----12----12--------12----13----13--------13----13------|
---------------------------------------------------------------------------|

R
------------------------------------------------------------------------|
------------------------------------------------------------------------|
---7-----7-8-7-----7------7-----7-8-7----7-----7-----7-8-7----7-----7---|
------------------------------------------------------------------------|
5-----5---------5-----5------5--------5-----6-----6--------6-----6------|
------------------------------------------------------------------------|







1:57



--------------------------------------------------------|
--------------------------------------------------------|
--------------------------------------------------------|
---0------5-----1-----3-----0----5-----1-----3-----0----|
---x------x-----x-----x-----x----x-----x-----x-----x----|
-\-0------5-----1-----3-----0----5-----1-----3-----0----|





L
-----------------------------------------------------------------------------------------|
-----------------------------------------------------------------------------------------|
----14---14-15-14---14----14---14-15-14---14----14---14-15-14---14----14---14-15-14---15-|
-----------------------------------------------------------------------------------------|
-12----12--------12----12----12--------12----13----13--------13----13----13--------13----|
-----------------------------------------------------------------------------------------|


R
-------------------------------------------------------------------------------------|
-------------------------------------------------------------------------------------|
---7-----7-8-7-----7------7-----7-8-7----7-----7-----7-8-7----7-----7-----7-8-7-----7|
-------------------------------------------------------------------------------------|
5-----5---------5-----5------5--------5-----6-----6--------6-----6-----6---------6---|
-------------------------------------------------------------------------------------|



L
-----------------------------------------------------------------------------------------|
-----------------------------------------------------------------------------------------|
----14---14-15-14---14----14---14-15-14---14----14---14-15-14---14----14---14-15-14---15-|
-----------------------------------------------------------------------------------------|
-12----12--------12----12----12--------12----13----13--------13----13----13--------13----|
-----------------------------------------------------------------------------------------|

R
-------------------------------------------------------------------------------------|
-------------------------------------------------------------------------------------|
---7-----7-8-7-----7------7-----7-8-7----7-----7-----7-8-7----7-----7-----7-8-7-----7|
-------------------------------------------------------------------------------------|
5-----5---------5-----5------5--------5-----6-----6--------6-----6-----6---------6---|
-------------------------------------------------------------------------------------|




L
-----------------------------------------------------------------------------------------|
-----------------------------------------------------------------------------------------|
----14---14-15-14---14----14---14-15-14---14----14---14-15-14---14----14---14-15-14---15-|
-----------------------------------------------------------------------------------------|
-12----12--------12----12----12--------12----13----13--------13----13----13--------13----|
-----------------------------------------------------------------------------------------|


R
-------------------------------------------------------------------------------------|
-------------------------------------------------------------------------------------|
---7-----7-8-7-----7------7-----7-8-7----7-----7-----7-8-7----7-----7-----7-8-7-----7|
-------------------------------------------------------------------------------------|
5-----5---------5-----5------5--------5-----6-----6--------6-----6-----6---------6---|
-------------------------------------------------------------------------------------|



L
---------------------------------------------------------------------------|
---------------------------------------------------------------------------|
----14---14-15-14---14----14---14-15-14---14----14---14-15-14---14----14---|
---------------------------------------------------------------------------|
-12----12--------12----12----12--------12----13----13--------13----13------|
---------------------------------------------------------------------------|

R
------------------------------------------------------------------------|
------------------------------------------------------------------------|
---7-----7-8-7-----7------7-----7-8-7----7-----7-----7-8-7----7-----7---|
------------------------------------------------------------------------|
5-----5---------5-----5------5--------5-----6-----6--------6-----6------|
------------------------------------------------------------------------|




2:40



--------------------------------------------------------|
--------------------------------------------------------|
--------------------------------------------------------|
---0------5-----1-----3-----0----5-----1-----3-----0----|
---x------x-----x-----x-----x----x-----x-----x-----x----|
-\-0------5-----1-----3-----0----5-----1-----3-----0----|


1
--------------------------------------------------------|
--------------------------------------------------------|
--------------------------------------------------------|
---0------5-----1-----3-----0----5-----1-----3-----0----|
---x------x-----x-----x-----x----x-----x-----x-----x----|
-\-0------5-----1-----3-----0----5-----1-----3-----0----|

2
---------0-5-----------------------------------------|
-------6-----6---5-6----------)(---------------------|
----/7---------7-------------2---0-----2-0-----------|
------------------------------------3------3-1-------|
-----------------------------------------------------|
-0--------------------5--1---------------------------|


1
--------------------------------------------------------|
--------------------------------------------------------|
--------------------------------------------------------|
---0------5-----1-----3-----0----5-----1-----3-----0----|
---x------x-----x-----x-----x----x-----x-----x-----x----|
-\-0------5-----1-----3-----0----5-----1-----3-----0----|

2
---------0-5-----------------------------------------|
-------6-----6---5-6----------)(---------------------|
----/7---------7-------------2---0-----2-0-----------|
------------------------------------3------3-1-------|
-----------------------------------------------------|
-0--------------------5--1---------------------------|


1
-----------------------------------------------------|
-----------------------------------------------------|
-----------------------------------------------------|
-----------------------------------------------------|
---5-----10-----6-----8-----5----10----6-----8-------|
-\-0------5-----1-----3-----0----5-----1-----3-------|

2
---------0-5-----------------------------------------|
-------6-----6---5-6----------)(---------------------|
----/7---------7-------------2---0-----2-0-----------|
------------------------------------3------3-1-------|
-----------------------------------------------------|
-0--------------------5--1---------------------------|


1
--------------------------------------------------------|
--------------------------------------------------------|
--------------------------------------------------------|
---0------5-----1-----3-----0----5-----1-----3-----0----|
---x------x-----x-----x-----x----x-----x-----x-----x----|
-\-0------5-----1-----3-----0----5-----1-----3-----0----|

2
---------0-5-----------------------------------------|
-------6-----6---5-6----------)(---------------------|
----/7---------7-------------2---0-----2-0-----------|
------------------------------------3------3-1-------|
-----------------------------------------------------|
-0--------------------5--1---------------------------|






L
------------------------------------------------------------------------|
---10---10-11-10----10---10---10-11-10---10---10---10-11-10---10---10---|
------------------------------------------------------------------------|
-7----7----------7-----7----7----------7----8----8----------8----8------|
------------------------------------------------------------------------|
------------------------------------------------------------------------|

R
------------------------------------------------------------------------|
------------------------------------------------------------------------|
---7-----7-8-7-----7------7-----7-8-7----7-----7-----8-8/10-8-7-8-------|
------------------------------------------------------------------------|
5-----5---------5-----5------5--------5-----6-----6---------------------|
------------------------------------------------------------------------|







3:38


------------------------------------------------------------------|
------------------------------------------------------------------|
------------------------------------------------------------------|
------------------------------------------------------------------|
---0-------------0---0-----------3-1-------------1---1------------|
---0-0-0-0-000-0-0-0-0-0-0-000-0-3-1-1-1-1-111-1-1-1-1-1-1-111-1--|
     * * * *** *   *   * * *** *     * * * *** *   *   * * *** * 

------------------------------------------------------------------|
------------------------------------------------------------------|
------------------------------------------------------------------|
------------------------------------------------------------------|
-3-0-------------0---0-----------3-1-------------1---1------------|
-3-0-0-0-0-000-0-0-0-0-0-0-000-0-3-1-1-1-1-111-1-1-1-1-1-1-111-1--|
     * * * *** *   *   * * *** *     * * * *** *   *   * * *** * 

------------------------------------------------------------------|
------------------------------------------------------------------|
------------------------------------------------------------------|
------------------------------------------------------------------|
-3-0-------------0---0-----------3-1-------------1---1------------|
-3-0-0-0-0-000-0-0-0-0-0-0-000-0-3-1-1-1-1-111-1-1-1-1-1-1-111-1--|
     * * * *** *   *   * * *** *     * * * *** *   *   * * *** * 

------------------------------------------------------------------|
------------------------------------------------------------------|
------------------------------------------------------------------|
------------------------------------------------------------------|
-3-0-------------0---0-----------3-1-------------1---1------------|
-3-0-0-0-0-000-0-0-0-0-0-0-000-0-3-1-1-1-1-111-1-1-1-1-1-1-111-1--|
     * * * *** *   *   * * *** *     * * * *** *   *   * * *** * 




4:10

L
---------------------------------------------------------------------|
---------------------------------------------------------------------|
---------------------------------------------------------------------|
---------------------------------------------------------------------|
-3-5-------------------3---6---3---5-1-------------------5---3---1---|
-3-5-----------------0-3-0-6-0-3-0-5-1-------------------5-0-3-0-1-0-|
                     *   *   *   *                         *   *   *
R
---------------------------------------------------------------------|
---------------------------------------------------------------------|
-------------_---------------------------------_---------------------|
------------/ \-------------------------------/ \--------------------|
-3-5-------5-6-5-3-5---3---6---3---5-1-------1-3-1-0-1---5---3---1---|
-3-5-5-5-5-5-6-5-3-5-0-3-0-6-0-3-0-5-1-1-1-1-1-3-1-0-1-0-5-0-3-0-1-0-|
     * * *           *   *   *   *     * * *           *   *   *   *


L
------------------------------------------------------------------------|
------------------------------------------------------------------------|
------------------------------------------------------------------------|
---------------------------------------------------------6655-----------|
-3-5-------------------3---6---3---5-6-----------------------6655335566-|
-3-5-----------------0-3-0-6-0-3-0-5-6-----------------55---------------|
                     *   *   *   *                     ****************
R
------------------------------------------------------------------------|
------------------------------------------------------------------------|
-------------_---------------------------------_------------------------|
------------/ \-------------------------------/ \--------6655-----------|
-3-5-------5-6-5-3-5---3---6---3---5-6-------6-8-6-5-6-------6655335566-|
-3-5-5-5-5-5-6-5-3-5-0-3-0-6-0-3-0-5-6-6-6-6-6-8-6-5-6-55---------------|
     * * *           *   *   *   *     * * *           ****************



4:26

L
---------------------------------------------------------------------|
---------------------------------------------------------------------|
---------------------------------------------------------------------|
---------------------------------------------------------------------|
---5-------------------3---6---3---5-1-------------------5---3---1---|
---5-----------------0-3-0-6-0-3-0-5-1-------------------5-0-3-0-1-0-|
                     *   *   *   *                         *   *   *
R
---------------------------------------------------------------------|
---------------------------------------------------------------------|
-------------_---------------------------------_---------------------|
------------/ \-------------------------------/ \--------------------|
---5-------5-6-5-3-5---3---6---3---5-1-------1-3-1-0-1---5---3---1---|
---5-5-5-5-5-6-5-3-5-0-3-0-6-0-3-0-5-1-1-1-1-1-3-1-0-1-0-5-0-3-0-1-0-|
     * * *           *   *   *   *     * * *           *   *   *   *


L
------------------------------------------------------------------------|
------------------------------------------------------------------------|
------------------------------------------------------------------------|
---------------------------------------------------------6655-----------|
-3-5-------------------3---6---3---5-6-----------------------6655335566-|
-3-5-----------------0-3-0-6-0-3-0-5-6-----------------55---------------|
                     *   *   *   *                     ****************
R
------------------------------------------------------------------------|
------------------------------------------------------------------------|
-------------_---------------------------------_------------------------|
------------/ \-------------------------------/ \--------6655-----------|
-3-5-------5-6-5-3-5---3---6---3---5-6-------6-8-6-5-6-------6655335566-|
-3-5-5-5-5-5-6-5-3-5-0-3-0-6-0-3-0-5-6-6-6-6-6-8-6-5-6-55---------------|
     * * *           *   *   *   *     * * *           ****************




4:41


1
------------------------------------------------------------------|
------------------------------------------------------------------|
------------------------------------------------------------------|
------------------------------------------------------------------|
---0-------------0---0-----------3-1-------------1---1------------|
---0-0-0-0-000-0-0-0-0-0-0-000-0-3-1-1-1-1-111-1-1-1-1-1-1-111-1--|
     * * * *** *   *   * * *** *     * * * *** *   *   * * *** * 
2
------------------------------------------------------------------|
------------------------------------------------------------------|
--7---------8-----7------3-------10--------8-7-8------------------|
--X---------X-----X------X--------X--------X-X-X------------------|
--5---------6-----5------1--------8--------6\5-6------------------|
------------------------------------------------------------------|


1
------------------------------------------------------------------|
------------------------------------------------------------------|
------------------------------------------------------------------|
------------------------------------------------------------------|
-3-0-------------0---0-----------3-1-------------1---1------------|
-3-0-0-0-0-000-0-0-0-0-0-0-000-0-3-1-1-1-1-111-1-1-1-1-1-1-111-1--|
     * * * *** *   *   * * *** *     * * * *** *   *   * * *** * 

2
------------------------------------------------------------------|
------------------------------------------------------------------|
-8----7-7--------8-----7------3-3-----10--------8-7-8-------------|
-X----X-X--------X-----X------X-X------X--------X-X-X-------------|
-6----5-5--------6-----5------1-1------8--------6\5-6-------------|
------------------------------------------------------------------|





4:56

1
------------------------------------------------------------------|
------------------------------------------------------------------|
------------------------------------------------------------------|
------------------------------------------------------------------|
-3-0-------------0---0-----------3-1-------------1---1------------|
-3-0-0-0-0-000-0-0-0-0-0-0-000-0-3-1-1-1-1-111-1-1-1-1-1-1-111-1--|
     * * * *** *   *   * * *** *     * * * *** *   *   * * *** * 
2
---------------------------------------------------------------------|
---------------------------------------------------------------------|
---------------------------------------------------------------------|
///--///-///-///----///-///-///-----///---///-///-///---///-///-///--|
-6----5---3---5------6---5---1-------8-----6---5---6-----10--8---6---|
---------------------------------------------------------------------|



1
------------------------------------------------------------------|
------------------------------------------------------------------|
------------------------------------------------------------------|
------------------------------------------------------------------|
-3-0-------------0---0-----------3-1------------------------------|
-3-0-0-0-0-000-0-0-0-0-0-0-000-0-3-1------------------------------|
     * * * *** *   *   * * *** *    

2
---------------------------------------------------------------------|
---------------------------------------------------------------------|
///--///-///-///----///-///-///---///---///-///-///---///--///--///--|
-8----7---5---7------8---7---3-----10----8---7---8-----12---10---8---|
---------------------------------------------------------------------|
---------------------------------------------------------------------|





5:11


1
---------0-5-----------------------------------------|
-------6-----6---5-6----------)(---------------------|
----/7---------7-------------2---0-----2-0-----------|
------------------------------------3------3-1-------|
-----------------------------------------------------|
-0--------------------5--1---------------------------|

2
-----------------------------------------------------------------|
-----------------------------------------------------------------|
-----------------------------------------------------------------|
-----------------------------------------------------------------|
-0-------0-----0---0-----0------1-------1-----1---1-----1---1----|
-0-0-0-0-0-0-0-0-0-0-0-0-0-0-5--1-1-1-1-1-1-1-1-1-1-1-1-1-1-1-1--|
   * * *   * *   *   * *   *      * * *   * *   *   * *   *   *

3
-----------------------------------------------------------------|
-----------------------------------------------------------------|
--------------------------------///--------///--///--///---------|
--------------------------------15---------13---12---13----------|
-----------------------------------------------------------------|
-----------------------------------------------------------------|








1
---------0-5-----------------------------------------|
-------6-----6---5-6----------)(---------------------|
----/7---------7-------------2---0-----2-0-----------|
------------------------------------3------3-1-------|
-----------------------------------------------------|
-0--------------------5--1---------------------------|

2
-----------------------------------------------------------------|
-----------------------------------------------------------------|
-----------------------------------------------------------------|
-----------------------------------------------------------------|
-0-------0-----0---0-----0------1-------1-----1---1-----1---1----|
-0-0-0-0-0-0-0-0-0-0-0-0-0-0-5--1-1-1-1-1-1-1-1-1-1-1-1-1-1-1-1--|
   * * *   * *   *   * *   *      * * *   * *   *   * *   *   *

3
-----------------------------------------------------------------|
-----------------------------------------------------------------|
--------------------------------///--------///--///--------------|
--------------------------------15---------17---13---------------|
-----------------------------------------------------------------|
-----------------------------------------------------------------|








1
---------0-5-----------------------------------------|
-------6-----6---5-6----------)(---------------------|
----/7---------7-------------2---0-----2-0-----------|
------------------------------------3------3-1-------|
-----------------------------------------------------|
-0--------------------5--1---------------------------|

2
-----------------------------------------------------------------|
-----------------------------------------------------------------|
-----------------------------------------------------------------|
-----------------------------------------------------------------|
-0-------0-----0---0-----0------1-------1-----1---1-----1---1----|
-0-0-0-0-0-0-0-0-0-0-0-0-0-0-5--1-1-1-1-1-1-1-1-1-1-1-1-1-1-1-1--|
   * * *   * *   *   * *   *      * * *   * *   *   * *   *   *

3
-----------------------------------------------------------------|
///---------------------------///---------------------///--------|
-14----------------------------15----------------------17--------|
-----------------------------------------------------------------|
-----------------------------------------------------------------|
-----------------------------------------------------------------|








1
---------0-5-----------------------------------------|
-------6-----6---5-6----------)(---------------------|
----/7---------7-------------2---0-----2-0-----------|
------------------------------------3------3-1-------|
-----------------------------------------------------|
-0--------------------5--1---------------------------|

2
------------------------------------------------------------------|
------------------------------------------------------------------|
------------------------------------------------------------------|
------------------------------------------------------------------|
-0-------0-----0---0-----0------1-------1-----1---1-----1---1-----|
-0-0-0-0-0-0-0-0-0-0-0-0-0-0-5--1-1-1-1-1-1-1-1-1-1-1-1-1-1-1-1-0-|
   * * *   * *   *   * *   *      * * *   * *   *   * *   *   *

3
///----------------------------///--------------------///)GRAD BEND-|
-15----------------------------16---------------------18------------|
--------------------------------------------------------------------|
--------------------------------------------------------------------|
--------------------------------------------------------------------|
--------------------------------------------------------------------|






1
---------0-5-----------------------------------------|
-------6-----6---5-6----------)(---------------------|
----/7---------7-------------2---0-----2-0-----------|
------------------------------------3------3-1-------|
-----------------------------------------------------|
-0--------------------5--1---------------------------|

2
------------------------------------------------------------------|
------------------------------------------------------------------|
------------------------------------------------------------------|
------------------------------------------------------------------|
------------------------------------------------------------------|
-0------------------------1---------------------------------------|
   


1
---------0-5-----------------------------------------|
-------6-----6---5-6----------)(---------------------|
----/7---------7-------------2---0-----2-0-----------|
------------------------------------3------3-1-------|
-----------------------------------------------------|
-0--------------------5--1---------------------------|

2
------------------------------------------------------------------|
------------------------------------------------------------------|
------------------------------------------------------------------|
------------------------------------------------------------------|
------------------------------------------------------------------|
-0----------------------------------------------------------------|




---------0-5-----------------------------------------|
-------6-----6---5-6----------)(---------------------|
----/7---------7-------------2---0-----2-0-----------|
------------------------------------3------3-1-------|
-----------------------------------------------------|
-0--------------------5--1---------------------------|



---------0-5-----------------------------------------|
-------6-----6---5-6----------)(---------------------|
----/7---------7-------------2---0-----2-0-----------|
------------------------------------3------3-1--0----|
-----------------------------------------------------|
-0--------------------5--1---------------------------|    

Added On October 11th, 2014

SHARE

Comments

blog comments powered by Disqus

ADVERTISEMENT