Slipknot Tabs

Iowa Album

1 versions

TAB

            Iowa Tab by Slipknot


band: Slipknot
album: IOWA

tabbed by: Adam Kahn, funeralforafrie, james, dean, ben, sam
liam, scott, merik, raven, jimbo, "maggotleader1"

Thanks to everybody who sent their tabs in on time
we must get working on the new one soon!!!



People = Shit

Riff A - 216 bpm

C#|--------------------------------------------------------------------
G#|--------------------------------------------------------------------
E |--------------------------------------------------------------------
B |--------------------------------------------------------------------
F#|(6\5)-----(3\2)-----(6\5)-----(3\2)-----0-0-0-0---------------------
B |(6\5)-0-0-(3\2)-0-0-(6\5)-0-0-(3\2)-0-0-0-0-0-0---------------------
         * *       * *       * *       * * * * * *   

Riff B 

C#|--------------------------------------------------------------------
G#|--------------------------------------------------------------------
E |--------------------------------------------------------------------
B |--------------------------------------------------------------------
F#|------------2—-3-----2---------------2—-3-----2---------------------
B |0--1—-0—-1--------2------0—-1—-0—-1--------2------------------------
   \  \  \  \  \  \  \  \   \  \  \  \  \  \  \  \     

Riff C 

Guitar 2

C#|---(16\18)~------(16\18)~--16\--------------------------------------
G#|--------------------------------------------------------------------
E |--------------------------------------------------------------------
B |--------------------------------------------------------------------
F#|--------------------------------------------------------------------
B |1------------1-----------------1-0----------------------------------
         +             +
        1.5           1.5

Guitar 1 

C#|--------------------------------------------------------------------
G#|-11---11---11-------14----------------------------------------------
E |-X----X----X----9---12----------------------------------------------
B |-8----8----8--------11----------------------------------------------
F#|--------------------------------------------------------------------
B |--------------------------------------------------------------------
    \    \    \         \

Riff D - 126 bpm

Guitar 1 

C#|--------------------------------------------------------------------
G#|--------------------------------------------------------------------
E |--------------------------------------------------------------------
B |--------------------------------------------------------------------
F#|--------------------------------------------------------------------
B |17\-0-1-1-0-0H1—-0-1-1-0\5—-0-1-1-0-0H1—-0-1-1-0\5------------------

Guitar 2

C#|--------|
G#|--------|
E |--------|
B |--------|
F#|--------|
B |5~------|
   +
  2.5

Riff E - Is Riff D Guitar 1 but with both Guitars

Riff F

Guitars 1 and 2

C#|--------------------------------------------------------------------
G#|--------------------------------------------------------------------
E |--------------------------------------------------------------------
B |--------------------------------------------------------------------
F#|0-1-1-0-0H1—-0-1-1-0\5---0-1-1-0-0H1—-0-1-1-0\5---------------------
B |0-1-1-0-0H1—-0-1-1-0\5---0-1-1-0-0H1—-0-1-1-0\5---------------------

Riff G

Guitars 1 and 2

C#|--------------------------------------------------------------------
G#|--------------------------------------------------------------------
E |--------------------------------------------------------------------
B |--------------------------------------------------------------------
F#|--------------------------------------------------------------------
B |0-1-1-0-0H1—-0-0-3-3—-0-0-1-1—-0-0-4-3—-0-0\6-6-5-5-----------------

Riff H

Guitar 3 - This is Sampled but I tabbed it anyway.

C#|--10---11------------10---11----------------------------------------
G#|------------12—-11--------------------------------------------------
E |--------------------------------------------------------------------
B |--------------------------------------------------------------------
F#|--------------------------------------------------------------------
B |--------------------------------------------------------------------
     \    \    \   \    \    \

Guitar 2

C#|----------------------10\-------------------------------------------
G#|------------------6\------------------------------------------------
E |-7---7—7/--7—7------------------------------------------------------
B |--------------------------------------------------------------------
F#|--------------------------------------------------------------------
B |--------------------------------------------------------------------
   \    \ \   \ \    \   \

Guitar 1

C#|--------------------------------------------------------------------
G#|--------------------------------------------------------------------
E |--------------------------------------------------------------------
B |--------------------------------------------------------------------
F#|------------0-------------0-------------0---------------------------
B |0-0-1---4-4---1-1-1—-4-4-----0-0-1—-4-4---1-1—-1--------------------

Riff I

Guitars 1 and 2

C#|--------------------------------------------------------------------
G#|--------------------------------------------------------------------
E |--------------------------------------------------------------------
B |--------------------------------------------------------------------
F#|0-1-1-0-0H1—-1-1-1-0---0-0-0-1—--0-0-0-0---0-0-0—-5-----------------
B |0-1-1-0-0H1—-1-1-1-0---0-0-0-1---0-0-0-0---0-0-0—-5-----------------

C#|--------------------------------------------------------------------
G#|--------------------------------------------------------------------
E |--------------------------------------------------------------------
B |--------------------------------------------------------------------
F#|0-1-1-0-0H1—-1-1-1-0---0-0—-0-1-------------------------------------
B |0-1-1-0-0H1—-1-1-1-0---0-0—-0-1---x\--------------------------------

Riff J

Guitar 1 and 2

C#|--------------------------------------------------------------------
G#|--------------------------------------------------------------------
E |--------------------------------------------------------------------
B |--------------------------------------------------------------------
F#|7-0-8\1-1-4-4---7-0-8\1-1-4-4---7-0-8\1-1-4-4---7-0-8\1-1-4-4-------
B |7-0-8\1-1-4-4---7-0-8\1-1-4-4---7-0-8\1-1-4-4---7-0-8\1-1-4-4-------

Riff K

Guitar 1, then Guitar 2 starts second time.

C#|--------------------------------------------------------------------
G#|--------------------------------------------------------------------
E |--------------------------------------------------------------------
B |--------------------------------------------------------------------
F#|17\--0-0—-0-0—-0-0—-0-0—-1-1-1--------------------------------------
B |17\--0-0—-0-0—-0-0—-0-0—-1-1-1--------------------------------------

Riff L

Guitars 1 and 2

C#|--------------------------------------------------------------------
G#|--------------------------------------------------------------------
E |--------------------------------------------------------------------
B |--------------------------------------------------------------------
F#|1-1—-1-1—-1-1—-2-2---1-1—-1-1—-2-2—-4-4-----------------------------
B |1-1—-1-1—-1-1—-2-2---1-1—-1-1—-2-2—-4-4-----------------------------

Riff M

C#|--------------------------------------------------------------------
G#|--------------------------------------------------------------------
E |--------------------------------------------------------------------
B |--------------------------------------------------------------------
F#|--------------------------------------------------------------------
B |7-0-8\1-1—-4-4---7-0-8\1-1—-4-4-------------------------------------

Riff N - As above but Palm Muted

Riff O

C#|--------------------------------------------------------------------
G#|--------------------------------------------------------------------
E |--------------------------------------------------------------------
B |--------------------------------------------------------------------
F#|--------------------------------------------------------------------
B |3\21----------------------------------------------------------------


Song Structure
Riff A  Intro\Outro
Riff B  Intro 1
Riff C  Interlude 1
Riff B  Intro 1 
Riff D  Guitar 1 Pre-Verse
Riff F  Guitar 1 and 2 Pre-verse
Riff G  1st Verse
Riff H  Interlude 2 
Riff I  Pre-Chorus
Riff F  Guitar 1 and 2 Pre-verse
Riff J  Chorus
Riff K  Pre-Verse 2
Riff L  Verse 2 
Riff M  Pre-Chorus 2
Riff N  Pre-Chorus 2 with Palm Mute
Riff O  Pre-Chorus Intro
Riff J  Chorus
Riff A  Intro\Outro





Disasterpiece

Intro
Guitar 1:
C#|----------------------------------------------|
G#|---------------------4------------------------|
E |----------------------------------------------|
B |----------------------------------------------|
F#|----------------------------------------------|
B |-3*-----/2*-----/3*-------3*-----/2*-----/3*--|
   |__tremolo picking__|    |__tremolo picking__|

Guitar 2:
C#|------------------------------------------------------------------|
G#|------------------------------------------------------------------|
E |------------14~------------------------------13~------------------|
B |-------------x--------------------------------x-------------------|
F#|------------12~------------------------------11~------------------|
B |-0-0-0--0-0------0-0-0-0-2-0-3-1--0-0-0--0-0------0-0-0-0-3-0-3-1-|
   |____PM____|    |____________PM_____________|    |_______PM______|

C#|------------------------------------------------------------------|
G#|------------------------------------------------------------------|
E |------------14~------------------------------14~------------------|
B |-------------x--------------------------------x-------------------|
F#|------------12~------------------------------12~-------------12/0-|
B |-0-0-0--0-0------0-0-0-0-2-0-3-1--0-0-0--0-0------0-0-0--0-0------|
   |____PM____|    |____________PM_____________|    |____PM____|

C#|------------------------------------------------------------------|
G#|------------------------------------------------------------------|
E |------------13~-------------------------------13~-----------------|
B |-------------x---------------------------------x------------------|
F#|------------11~-------------------------------11~-----------------|
B |-0-0-0--0-0------0-0--0h2-2p0-3/1--0-0-0--0-0----0-0--0h2-2p0-3/1-|
   |____PM____|    |_PM_|            |____PM____|  |_PM_|

Riff 1:
C#|--------------------------------------|
G#|--------------------------------------|
E |--------------13/14-------------------|
B |---------------x----------------------|
F#|--------------11/12---------2-2---3/1-|
B |-0-0--0--0-0---------0-0--0h2-2p0-3/1-|
   |_PM_|  |_PM_|      |_PM_|



Riff 2
Part 1:
C#|---------------------------|
G#|---------------------------|
E |---------------------------|
B |---------------------------|
F#|---------------------------|
B |-0-0-0-1-1-1-0-0h2-2p0-3/1-|

Part 2:
C#|-----------------------------|
G#|-----------------------------|
E |-----------------------------|
B |-----------------------------|
F#|-----------------------------|
B |-0-0-0-1-1-1-0-2/1-0-3/1-4/1-|

Riff 3:
C#|-------------------------------------------|
G#|-------------------------------------------|
E |---------------------------------4---------|
B |-----------------------8---------x---------|
F#|-0-0-0-1-1-1-0---------x---------x---------|
B |-0-0-0-1-1-1-0---------8---------1---------|
                         |__tremolo picking__|

Riff 4
Guitar 1:
C#|-0---0-0--0-0--0---0-0---0---|
G#|-6/5-5-5b-5-5--6/5-5-8/6-6/5-|
E |-----------------------------|
B |-----------------------------|
F#|-----------------------------|
B |-----------------------------|

Guitar 2 (only played in the middle of second verse):
C#|------------------------------------------------|
G#|------------------------------------------------|
E |------------------------------------------------|
B |------------------------------------------------|
F#|------------------------------------------------|
B |-0-0-0-1-1-1-0--2p1-0----0-0-0-1-1-1-0--2p1-1-0-|
     


Riff 5:
C#|------------------------------|
G#|------------------------------|
E |------------------------------|
B |------------------------------|
F#|------------------------------|
B |-1-1-1-2-2-2-1--2/1-0-3/1-4/1-|


Riff 6
Part 1:
C#|--------------------------------------------------/15-15-|
G#|------------------------------------------------11-------|
E |---------------------13-13--------------------5/---------|
B |----------------------x--x-------------------------------|
F#|-0-------------------11-11--0----------------------------|
B |-0-----------------3/-------0----------------------------|

C#|---------------------------------------------------------------|
G#|---------------------------------------------------------------|
E |---------------------13-13--------------------8----------------|
B |----------------------x--x--------------------x----------------|
F#|-0-------------------11-11--0-----------------6----------------|
B |-0-----------------3/-------0----------------------------------|
                                               |_tremolo picking_|
Part 2
Guitar 1:
C#|------------------------|---------------------------|
G#|------------------------|---------------------------|
E |------------------------|---------------------------|
B |------------------------|---------------------------|
F#|-0--0--3--4--1----------|-2*b---0--3--4--1----------|
B |-0--0--3--4--1/6--8--9--|-------0--3--4--1/6--8--9--|
      |____PM____|                |____PM____|

  |____only played once____|

Guitar 2:
C#|------------------------|
G#|------------------------|
E |---------------------8--|
B |---------------------x--|
F#|-0-------------------6--|
B |-0----------------------|

Riff 7:
C#|---------------------------------------------------|
G#|---------------------------------------------------|
E |---------------------------------------------------|
B |---------------------------------------------------|
F#|-2*b----0----3----4----1----------------------9----|
B |--------0----3----4----1----6-------8---------9----|
                              |_tremolo picking_|





My Plague

--------------------|--------------------|-------------------|----------------
--------------------|--------------------|-------------------|----------------
--------------------|--------------------|-------------------|----------------
--------------------|--------------------|-------------------|----------------
-00-0-0-------------|00-0-0--------------|00-0-0-------------|00-0-0----------
-00-0-0--1-h2-2p1---|00-0-0--1-h2-2p1----|00-0-0-1-h2-2p1----|00-0-0-1-h2-2p1-
           *slowly hammer onto 2                                              

--------------------|--------------------|-------------------|----------------
--------------------|--------------------|-------------------|----------------
--------------------|--------------------|-------------------|----------------
--------------------|--------------------|-------------------|----------------
-00-0-0-------------|00-0-0--------------|00-0-0-------------|00-0-0----------
-00-0-0--1-h2-2p1---|00-0-0--1-h2-2p1----|00-0-0--1-h2-2p1---|00-0-0----------
 PM----              ------               ------              ------          

--------------------|--------------------|-------------------|----------------
--------------------|--------------------|-------------------|----------------
--------------------|--------------------|-------------------|----------------
--------------------|--------------------|-------------------|----------------
-0-0-0--------------|0-0-0---------------|0-0-0--------------|0-0-0-0---------
-0-0-0-1-h2-2p1-----|0-0-0--1-h2-2p1-----|0-0-0-1-h2-2p1-----|0-0-0-0---------
 (0:12)              -----                -----               -------         

--------------------|--------------------|-------------------|----------------
--------------------|--------------------|-------------------|----------------
--------------------|--------------------|-------------------|----------------
--------------------|--------------------|-------------------|----------------
-0-0-0-1-h2-2p1-----|0-0-0-1-h2-2p1------|0-0-0-1-h2-2p1-----|0-0-0-1-h2-2p1--
-0-0-0-1-h2-2p1-----|0-0-0-1-h2-2p1------|0-0-0-1-h2-2p1-----|0-0-0-1-h2-2p1--
 (0:17)              -----                -----               -----           

--------------------|--------------------|-------------------|----------------
--------------------|--------------------|-------------------|----------------
--------------------|--------------------|-------------------|----------------
--------------------|--------------------|-------------------|----------------
-0-0-0-1-h2-2p1-----|0-0-0-1-h2-2p1------|0-0-0-1-h2-2p1-----|0-0-0-1-h2-2p1--
-0-0-0-1-h2-2p1-----|0-0-0-1-h2-2p1------|0-0-0-1-h2-2p1-----|0-0-0-1-h2-2p1--
 -----               -----                -----               -----           

------------------------------------------------------------------------------
------------------------------------------------------------------------------
------------------------------------------------------------------------------
------------------------------------------------------------------------------
------------------------------------------------------------------------------
-17\\\\\\---------------------------------------------------------------------
                                                                              

--------------------|--------------------|-------------------|----------------
--------------------|--------------------|-------------------|----------------
--------------------|--------------------|-------------------|----------------
--------------------|--------------------|-------------------|----------------
-0-0-0-1-h2-2p1-----|0-0-0-1-h2-2p1------|0-0-0-1-h2-2p1-----|0-0-0-1-h2-2p1--
-0-0-0-1-h2-2p1-----|0-0-0-1-h2-2p1------|0-0-0-1-h2-2p1-----|0-0-0-1-h2-2p1--
 -----               -----                -----               -----           

--------------------|--------------------|-------------------|----------------
--------------------|--------------------|-------------------|----------------
--------------------|--------------------|-------------------|----------------
--------------------|--------------------|-------------------|----------------
-0-0-0-1-h2-2p1-----|0-0-0-1-h2-2p1------|0-0-0-1-h2-2p1-----|0-0-0-1-h2-2p1--
-0-0-0-1-h2-2p1------0-0-0-1-h2-2p1------|0-0-0-1-h2-2p1-----|0-0-0-1-h2-2p1--
 -----               -----                -----               -----           

--------------------|--------------------|-------------------|----------------
--------------------|-8---8--8--8--8-/---|-------------------|----------------
--------------------|11b-11b11b11b11b/---|-------------------|----------------
----7-10--12--------|--------------------|---7-10--12--------|----------------
-0--5--8--10--------|--------------------|0--5--8--10--------|22222222-666666-
-0------------------|--------------------|0------------------|22222222-666666
                                                                              

--------------------|--------------------|-------------------|----------------
--------------------|-8---8--8--8--8-/---|-------------------|----------------
--------------------|11b-11b11b11b11b/---|-------------------|----------------
----7-10--12--------|--------------------|---7--10--12-------|----------------
-0--5--8--10--------|--------------------|0--5---8--10-------|22222222-666666
-0------------------|--------------------|0------------------|22222222-666666
                                                                              

--------------------|--------------------|-------------------|----------------
--------------------|--------------------|-------------------|----------------
--------------------|--------------------|-------------------|----------------
--------------------|--------------------|-------------------|----------------
-00-0-0-------------|00-0-0--------------|-------------------|----------------
-00-0-0--1-h2-2p1---|00-0-0--1-h2-2p1----|-------------------|----------------
 ------              ------                (ignore these blank measures)      

--------------------|--------------------|-------------------|----------------
--------------------|--------------------|-------------------|----------------
--------------------|--------------------|-------------------|----------------
--------------------|--------------------|-------------------|----------------
-0-0-0-1-h2-2p1-----|0-0-0-1-h2-2p1------|0-0-0-1-h2-2p1-----|0-0-0-1-h2-2p1--
-0-0-0-1-h2-2p1-----|0-0-0-1-h2-2p1------|0-0-0-1-h2-2p1-----|0-0-0-1-h2-2p1--
 -----               -----                -----               -----           

--------------------|--------------------|-------------------|----------------
--------------------|--------------------|-------------------|----------------
--------------------|--------------------|-------------------|----------------
--------------------|--------------------|-------------------|----------------
-0-0-0-1-h2-2p1-----|0-0-0-1-h2-2p1------|0-0-0-1-h2-2p1-----|0-0-0-1-h2-2p1--
-0-0-0-1-h2-2p1-----|0-0-0-1-h2-2p1------|0-0-0-1-h2-2p1-----|0-0-0-1-h2-2p1--
 -----               -----                -----               -----           

--------------------|--------------------|-------------------|----------------
--------------------|--------------------|-------------------|----------------
--------------------|--------------------|-------------------|----------------
--------------------|--------------------|-------------------|----------------
-22222222-----------|--------------------|-------------------|----------------
-22222222-----------|--------------------|-------------------|----------------
                                                                              

--------------------|--------------------|-------------------|----------------
--------------------|--------------------|-------------------|----------------
--------------------|-8---8--8--8--8-/---|-------------------|----------------
---7-10--12---------|11b-11b11b11b11b/---|--7-10--12---------|----------------
-0-5--8--10---------|--------------------|0-5--8--10---------|22222222-555555-
-0------------------|--------------------|0------------------|22222222-555555-
 (1:24)                                                                       

--------------------|--------------------|-------------------|----------------
--------------------|--------------------|-------------------|----------------
--------------------|-8---8--8--8--8-/---|-------------------|----------------
---7-10--12---------|11b-11b11b11b11b/---|--7-10--12---------|----------------
-0-5--8--10---------|--------------------|0-5--8--10---------|22222222-55555--
-0------------------|--------------------|0------------------|22222222-55555--
                                                                              
-----(palm mute)
--------------------|--------------------|-------------------|----------------
--------------------|--------------------|-------------------|----------------
--------------------|--------------------|-------------------|----------------
--------------------|--------------------|-------------------|----------------
------43----8----98-|-----43----8----98--|-----43---8----98--|----43---8---98-
-0-32----43---98----|0-32----43---98-----|0-32----43--98-----|032---43---98---
 - -- -- -- --- ------  ------------------   -----------------   --------------- 

--------------------|--------------------|-------------------|----------------
--------------------|--------------------|-------------------|----------------
--------------------|--------------------|-------------------|----------------
--------------------|-2h3p2-------4-0----|-------------------|-2h3p2------4-0-
-0-3-2-0--3h4-------|--------5p2---------|0-3-2-0--3h4-------|-------5p2------
-0-3-2-0------3h4---|--------------------|0-3-2-0------3h4---|----------------
 -------     Play this Riff 12 times      -------                             

--------------------|--------------------|-------------------|----------------
--------------------|-8---8--8--8--8-/---|-------------------|----------------
--------------------|11b-11b11b11b11b/---|-------------------|----------------
---7-10--12---------|--------------------|--7-10--12---------|----------------
-0-5--8--10---------|--------------------|0-5--8--10---------|2222222-5555555-
-0------------------|--------------------|0------------------|2222222-5555555-
                                                                              

--------------------|--------------------|-------------------|----------------
--------------------|-8---8--8--8--8-/---|-------------------|----------------
--------------------|11b-11b11b11b11b/---|-------------------|----------------
---7-10--12---------|--------------------|--7-10--12---------|----------------
-0-5--8--10---------|--------------------|0-5--8--10---------|2222222-5555555-
-0------------------|--------------------|0------------------|2222222-5555555-
                                                                              

--------------------|--------------------|-------------------|----------------
--------------------|--------------------|-------------------|----------------
---7-10--10--4tp-5tp|--7-10--10--4tp-5tp-|--7-10--10--4tp-5tp|--7-10--10------
---x--x---x--x---x--|--x--x---x--x---x---|--x--x---x--x---x--|--x--x---x-4--5-
-0-5--8-0-8--2tp-3tp|0-5--8-0-8--2tp-3tp-|0-5--8-0-8--2tp-3tp|0-5--8-0-8-x--x-
-0------------------|0-------------------|0------------------|0----------2--3-
                                                                              

--------------------|--------------------|-------------------|----------------
--------------------|--------------------|-------------------|----------------
--------------------|--------------------|-------------------|----------------
--------------------|--------------------|-------------------|----------------
-0-0-0-1-h2-2p1-----|0-0-0-1-h2-2p1------|0-0-0-1-h2-2p1-----|0-0-0-1-h2-2p1--
-0-0-0-1-h2-2p1-----|0-0-0-1-h2-2p1------|0-0-0-1-h2-2p1-----|0-0-0-1-h2-2p1--
                                                                              

--------------------|--------------------|-------------------|----------------
--------------------|--------------------|-------------------|----------------
--------------------|--------------------|-------------------|----------------
--------------------|--------------------|-------------------|----------------
------------01-h22p1|0-0-0-0-0--01-h2-2p1|0-0-0-0-0-01-h2-2p1|0-0-0-0-0-01h2p-
-0-0-0-0-0--01-h22p1|0-0-0-0-0--01-h2-2p1|0-0-0-0-0-01-h2-2p1|0-0-0-0-0-01h2p-
 ---------  -        ---------            --------- -                         

--------------------|--------------------|-------------------|----------------
--------------------|--------------------|-------------------|----------------
--------------------|--------------------|-------------------|----------------
--------------------|--------------------|-------------------|----------------
--------------------|--------------------|-------------------|----------------
-1-h2-2p1-----------|1-h2-2p1------------|1-h2-2p1-----------|1-h2-2p1--------
 Flanger and Distortion until the end






Everything Ends

B |---------------------------------------------------------|
F#|---------------------------------------------------------|
D |---------------------------------------------------------|
A |---------------------------------------------------------|
E |---------------------------------------------------------|
A |-10-10-10-10-10-10-10-10-9-9-9-9-9-9-9-9-3-3-3-3-3-3-3-3-|

B |-------------------------------------------------|
F#|-------------------------------------------------|
D |-------------------------------------------------|
A |-------------------------------------------------|
E |-------------------------------------------------|
A |-6-6-6-6-6-6-6-6-5-5-5-5-5-5-5-5-5-5-5-5-5-5-3-3-|

B |-------------------------------|
F#|-------------------------------|
D |-------------------------------|
A |-------------------------------|
E |-------------------------------|
A |-1-1-1-1-1-1-1-1-1-1-1-1-1-1-1-|

guitar 2:
B |---------------------------------|
F#|---------------------------------|
D |-3*----------2*-3*--2*-3*--2*-3*-|
A |---------------------------------|
E |---------------------------------|
A |---------------------------------|

B |------------------------------------|
F#|------------------------------------|
D |-3*----------2*-3*--2*-3*--2*-3*-3*-|
A |------------------------------------|
E |------------------------------------|
A |------------------------------------|


B |--------------------------------------------------------------|
F#|--------------------------------------------------------------|
D |-3*-3*-------2*-3*--2*-3*--2*-3*----3*-2*--3*-2*--3*--3*--3*--|
A |--------------------------------------------------------------|
E |--------------------------------------------------------------|
A |--------------------------------------------------------------|


riff 2:
B |---------------------------------------------------------|
F#|---------------------------------------------------------|
D |---------------------------------------------------------|
A |---------------------------------------------------------|
E |---------------------------------------------------1-1-1-|
A |--0-1-4-1-0---0-1-4-0--0--4~--0--6~--0--0-1-4-1-0--1-1-1-|

riff 3:
B |----------------------------|
F#|----------------------------|
D |----------------------------|
A |----------------------------|
E |-0-1-2-0-0-1-2--1-2----1-2--|
A |-0-1-2-0-0-1-2--1-2----1-2--|
   |____________PM____________|

riff 4:
B |-------------------------------|
F#|-------------------------------|
D |-------------------------------|
A |-------------------------------|
E |-------------------------------|
A |-0-0-0-6--0-6--0-0-0-2-2-2-1-1-|

riff 5:
B |---------------------------------------------------------|
F#|---------------------------------------------------------|
D |---------------------------------------------------------|
A |---------------------------------------------------------|
E |---------------------------------------------------------|
A |-10-10-10-10-10-10-10-10-9-9-9-9-9-9-9-9-3-3-3-3-3-3-3-3-|

B |--------------------------------------------------|
F#|--------------------8------------------4----------|
D |--------------------7------------------3----------|
A |--------------------5------------------1----------|
E |--------------------5------------------1----------|
A |-6-6-6-6-6-6-6-6-5--5----------3-3--1--1----------|

riff 6
part 1:
B |-----------------|
F#|-----------------|
D |------13/14--13--|
A |-------x------x--|
E |------11/12--11--|
A |-0-0-------------|


part 2
guitar 1:
B |--------------------------|--------------------------|
F#|--------------------------|--------------------------|
D |--------------------------|--------------------------|
A |-------2------------------|-------2------------------|
E |-4--3--0--1--0------------|-------0--1--0--3*~-------|
A |-4--3-----1--0--4*~--3*~--|-4--3-----1--0-------3*~--|
   |________play 3x_________|

guitar 2:
B |--------------------------|
F#|--------------------------|
D |--------------------------|
A |-------2------------------|
E |-4--3--0--0---------------|
A |-4--3-----0-----4/3--4/3--|

riff 7:
B |------------------------------|
F#|------------------------------|
D |------------------------------|
A |-------2----------------------|
E |-4--3--0--1--0--2---x--3---x--|
A |-4--3-----1--0--2---x--3---x--|

outro
guitar 1:
B |----------------------------------|
F#|----------------------------------|
D |----------------------------------|
A |----------------------------------|
E |--------------------------4-----6-|
A |-0-1-4-1-0--0-1-4-1-0--0--4--0--6-|


guitar 2:
B |-------------------------------------------------------------------|
F#|-------------------------------------------------------------------|
D |-3*-2*--3*--2*-3*--2*---3*-2*---3*/2*-2*/3*-3*/2*/3*--3*-----2*-3*-|
A |-------------------------------------------------------------------|
E |-------------------------------------------------------------------|
A |-------------------------------------------------------------------|
   |__________________tremolo picking___________________|







The Heretic Anthem

(Uncompleted David you really need to send this)






Gently

Riff 1:
C#|---------------------------------------------------------------------------|
G#|---------------------------------------------------------------------------|
E |-10-10-10-10-10-10-10-10-10-10-10-10-10/18-18-18-9-9-9-9-9-9-9-9-9-9-9-9-9-|
B |--x--x--x--x--x--x--x--x--x--x--x--x--x/-x--x--x-x-x-x-x-x-x-x-x-x-x-x-x-x-|
F#|--8--8--8--8--8--8--8--8--8--8--8--8--8/16-16-16-7-7-7-7-7-7-7-7-7-7-7-7-7-|
B |---------------------------------------------------------------------------|

C#|-------------------------------------------------|
G#|-------------------------------------------------|
E |-14-14-14-14-10-10-10-10-10-10-10-10-10-10-10-10-|
B |--x--x--x--x--x--x--x--x--x--x--x--x--x--x--x--x-|
F#|-12-12-12-12--8--8--8--8--8--8--8--8--8--8--8--8-|
B |-------------------------------------------------|

C#|-----------------------------------------------|
G#|---------------------------------------9-9-9-9-|
E |-10/18-18-18-9-9-9-9-9-9-9-9-9-9-9-9-9-x-x-x-x-|
B |--x/-x--x--x-x-x-x-x-x-x-x-x-x-x-x-x-x-7-7-7-7-|
F#|--8/16-16-16-7-7-7-7-7-7-7-7-7-7-7-7-7---------|
B |-----------------------------------------------|

Riff 2:
C#|----------------------------------|
G#|----------------------------------|
E |----------------------------------|
B |----------------------------------|
F#|-3-----3/7-7-7-7-2-----3/5-5/8-8~-|
B |-3-----3/7-7-7-7-2-----3/5-5/8-8~-| 

Riff 3:
C#|-------------------------------------------------|
G#|-------------------------------------------------|
E |-10-10-10-10-10-10-10-10-10-10-10-10-10/18-18-18-|
B |--x--x--x--x--x--x--x--x--x--x--x--x--x/-x--x--x-|
F#|--8--8--8--8--8--8--8--8--8--8--8--8--8/16-16-16-|
B |-------------------------------------------------|

C#|------------------------------------------|
G#|------------------------------------------|
E |-9-9-9-9-9-9-9-9-9-9-9-9-9-14-14-14-14/10-|
B |-x-x-x-x-x-x-x-x-x-x-x-x-x--x--x--x--x/-x-|
F#|-7-7-7-7-7-7-7-7-7-7-7-7-7-12-12-12-12/-8-|
B |------------------------------------------|

C#|-------------------------------------------------------------|
G#|-----------------------------------------------------9-9-9-9-|
E |-10-10-10-10-10-10-10-10-10-10-10-10-10/18-18-18-9~--x-x-x-x-|
B |--x--x--x--x--x--x--x--x--x--x--x--x--x/-x--x--x-x---7-7-7-7-|
F#|--8--8--8--8--8--8--8--8--8--8--8--8--8/16-16-16-7~----------|
B |-------------------------------------------------------------|

Riff 4:
C#|----------|
G#|--14b--r--|
E |--12b--r--|
B |----------|
F#|----------|
B |----------|

Riff 5:
C#|------------------------------|
G#|------------------------------|
E |------------------------------|
B |------------------------------|
F#|-0-3-2-3---2-4-3-1---0-0-0-0--|
B |-0-3-2-3---2-4-3-1---0-0-0-0--|
   |_PM__|   |_PM__|

Riff 6:
C#|---------------------------------------------|
G#|---------------------------------------------|
E |---------------------------------------------|
B |---------------------------------------------|
F#|-0-3-2-3----0-3-2-3----0-3-2-3----0-3-2-3----|
B |-0-3-2-3----0-3-2-3----0-3-2-3----0-3-2-3----|
   |_PM__|    |_PM__|    |_PM__|    |_PM__|







Left Behind (slipknot_133) thank you so fucking much :D

 intro Gtr.1
-----------------|----------------|-------------------|
-----------------|----------------|-------------------|
-----------------|----------------|-------------------|
-/-\---------/-\-|----------------|---------------/-\-|
-1-0-0---/-\-1/6-|-6-----1----/-\-|-------1---1---1/6-|
-------2-2-1-----|--0-0---2-1-1/6-|-6-0-0---2---------|
                  Gtr1&2       
-----------------|-----------------|------------------|
-----------------|-----------------|------------------|
-----------------|*----------------|-----------------*|
-----------------|-------------/-\-|------------------|
-6-----1-----/-\-|*------1-1---1/6-|-6-----1-----/-\-*|
---0-0---2-1-1/6-|-6-0-0-----2-----|---0-0---2-1-1/6--|

-----------------|
-----------------|
-8-8-8-8-8-8-----|
-x-x-x-x-x-x-----|
-6-6-6-6-6-6-----|
-------------13\-|
   Gtr.1     verse
--------------------------------------------------------|
--------------------------------------------------------|
---------------8877-------------------------8877--------|
---------------xxxx-------------------------xxxx--------|
---------------6655-6-6-0-0-1-1-0-0-6-6-0-0-6655-3333-1-|
-1-0-0-6-6-0-0------6-6-0-0-1-1-0-0-6-6-0-0------3333-1-|
   Gtr.2
-----------------|    |--------------|
*---------------*|    |--------------|
-----------------| 3x |--------------|
*---------------*|    |--------------|
-1-0-0-6-6-0-0-1-|    |-1-0-0-3333-1-|
-1-0-0-6-6-0-0-1-|    |-1-0-0-3333-1-|
  Gtr.1  chorus
--------------------------|----------------|---------------|
--------------------------|----------------|-----1010101010|
-3-3--8-8--3-3--8-8--3--8-|-----7-7----7---|-----x-x-x-x-x-|
-x-x--x-x--x-x--x-x--x--x-|-6-6------6---6-|-----7-7-7-7-7-|
-1-1--6-6--1-1--6-6--1--6-|----------------|-6-6-----------|
--------------------------|----------------|---------------|
  Gtr.2
--------------------------|--------------------|
--------------------------|--------------------|
--------------------------|--------------------|
--------------------------|--------------------|
--------------------------|-66666666--11111111-|
-----------------------13\|-66666666--11111111-| 

---------------------------------|    |-----------|
---------------------------------|    |-----------|
---------------------------------| 2x |-888888----|
-------------/-\-----------------|    |-xxxxxx----|
-------1-1---1/6-6-----1-----/-\-|    |-666666----|
-6-0-0-----2-------0-0---2-1-1/6-|    |--------13\|

verse 

chorus

  interlude  Gtr.1
---------
-11------
-x-------w/delay (next 24 meas.)
-8-------
---------
--------- 
  Gtr.2
---------------------------------------|
---------------------------------------|
---------------------------------------|
---------------------------------------|
-111111-666666-111111-666666-1111-6666-|
---------------------------------------|
p.m. ---------------------------------

--------------------------------------------------|
--------------------------------------------------|
--------------------------------------------------|
--------------------------------------------------|
--------------------------------------------------|
-6666666666666663-1-1-1-1-1-1-1-1-1-1-1-1-1-1-1-1-|
p.m.---------------------------------------------

Gtr.1                 ^^^^^^^^^^^^^^^^^ let ring---------
--------------------------------------------0---0---0----0-|
------------11-11-11--11-11-11-11-11-11-0-----0---0----0---|
-8---------------------------------------------------------|
-8---------------------------------------------------------|
-----------------------------------------------------------|
-----------------------------------------------------------|
                     
 let ring------      let ring----------
----------------------/------\--------------------------|
--11--------------16--17----16-16--16---16--16-16-(16)\-|
-------------------------13-------------x---x--x--(--)--|
-------8------/13-----------------------13--13-13-(13)\-|
--------------------------------------------------------|
--------------------------------------------------------|
 Take     this              a    -    way.____

-------------------------------------------|
-11------11/--16--17---16--16-16-16-16-16--|
-x-------x---------------------------------|
-8-------8/13------------------------------|
-------------------------------------------|
-------------------------------------------| 
Take    this            a        -      
           way._________________
-------------------------------|
-16--16-16-16--16--1616161616\-|
-------------------x-x-x-x-x---|
-------------------1313131313\-|
-------------------------------|
-------------------------------|
____  I can feel it on my mouth   I can taste you on my fin-
----------------------------------------------------------  
-11-----12----------11--------17-16--------16------16-----
-x-------x----------x----------x--------------------x-----
-8-------9----------8---------14------13-----------13-----
----------------------------------------------------------
----------------------------------------------------------
-gers  I can hear you like the  ho - ly ghost__ and
-------------------------------------------------------|
-11-----12--------11-------------16--16-16-16-16-16-16-|
-x------x---------x--------------13--13-13-13-13-13-13-|
-8------9---------8------------------------------------|
-------------------------------------------------------|
-------------------------------------------------------|
kill you if you get to close!     Yeah! As I close
--------------------------------------------------|
--------------------------------------------------|
--------------------------------------------------|
--------------------------------------------------|
-----------------------1---6---1---6---1--1--6--6-|
-x^^^^^^^^^^^^^^^------1---6---1---6---1--1--6--6-|

  chorus
Gtr.1
--------------------------|----------------|---------------|
--------------------------|----------------|----1010101010/|
-3-3--8-8--3-3--8-8--3--8-|-----7-7----7---|-----x-x-x-x-x-|
-x-x--x-x--x-x--x-x--x--x-|-6-6------6---6-|-----7-7-7-7-7/|
-1-1--6-6--1-1--6-6--1--6-|----------------|-6-6-----------|
--------------------------|----------------|---------------|
Gtr.2
--------------------------|--------------------|
--------------------------|--------------------|
--------------------------|--------------------|
--------------------------|--------------------|
--------------------------|-66666666--11111111-|
-----------------------13/|-66666666--11111111-|

--------------------------------------------------|
--------------------------------------------------|
--------------------------------------------------|
------------------------------/-\-----------------|
-6-----1-/-\-/-\--------1-1---1/6-6-----1-----/-\-|
---0-0---2-1-1/6--6-0-0-----2-------0-0---2-1-1/6-|
      Uh, we let it all slip a - way________________
-------------------------------|--------------------
-------------------------------|*-------------------
--------------_----------------|-----------------_--
-------------/-\---------------|--------3-------/-\-
-------1-1---1/6-6-----1-------|*-6-----1--2--1-1/8-
-6-0-0-----2-------0-0---2-1-1-|--6-0-0----2--1-1/6-
___                      Uh,   we let it  all  slip a -
---------------------------------------------------------|
----------------------------------_---------------------*|
----------------_----------------/-\-----------------_---|
-8-----3-------/-\--------3-3----3/8---------3------/-\--|
-6-----1--2--1-1/6--6-0-0-1-1----1/6--8-0-0--1-2--1-1/6-*|
---0-0----2--1-1/6--6-0-0------2------6-0-0----2--1-1/6--|
outro Gtr.1    
 Half-time Feel         We let it all slip a - way     
--------------------------------------|----------------
----------------_---------------------|*---------------
---------------/-\-----------------_--|----------------
-6-----3--3----3/8--8-----3-------/-\-|------------_---
-6-----1--1----1/6--6-----1--2--1-1/6-|*----------/-\--
---0-0-------2--------0-0----2--1-1/6-|--6-0----1-1/6--
                         We it all slip a-way! 
-----------------------------------------------|
----------------------------------------------*|
-----------------------------------------------|
------------_-------------_----------------_---|
-----------/-\-----------/-\--------------/-\-*|
-6-0----1--1/6--6-0---1--1/6---6--0----1--1/6--|
    
    Gtr.2
------------------------------------|-----------------------
---------------_--------------------|*----------------------
--------------/-\----------------_--|-----------------------
-------3-3----3/8--8-----3------/-\-|-----------------------
-6-----1-1----1/6--6-----1-2--1-1/6-|*-6--0-----(0)---------
---0-0------2--------0-0---2--1-1/6-|--6--0-----(0)---------

---------------------------------|
--------------------------------*|
---------------------------------|
-----------------------------_---|
----------------------------/-\-*|
-------------------------1--1/6--|

-----------------------------------------------------|
-----------------------------------------------------|
-----------------------------------------------------|
-------------_---------------_---------------_-------|
------------/-\-------------/-\-------------/-\------|
-6-0-----1--1/6--6-0-----1--1/6--6-0-----1--1/6--6-0-|

-----------------------------------------------------|
-----------------------------------------------------|
-----------------------------------------------------|
-----------------------------------------------------|
--6--------------------------------------------------|
--6--0-----------------------------------------------|








The Shape

intro
part 1:
C#|------------------------------|
G#|------------------------------|
E |------------------------------|
B |---8/13------------8/13-------|
F#|-0-8/13-0-1/3-1-0--8/13-0-1/3-|
B |-0-8/13-0-1/3-1-0--8/13-0-1/3-|

part 2: (played by guitar 2 over part 1 after its played a few times)
C#|----------------------------------------------------------|
G#|-5---5--5b---5--5b-----5--5b-------5b-----5--5b---5--0--5-|
E |----------------------------------------------------------|
B |----------------------------------------------------------|
F#|----------------------------------------------------------|
B |----------------------------------------------------------|
   |____________________tremolo picking_____________________|

C#|----------------17-|
G#|-5b---5---5/17--17-|
E |-------------------|
B |-------------------|
F#|-------------------|
B |-------------------|
   |_tremolo picking_|

part 3:
C#|------------------------------------------------------|
G#|------------------------------------------------------|
E |------------------------------------------------------|
B |------------------------------------------------------|
F#|------------------------------------------------------|
B |-sc-sc--sc-sc--sc-sc--sc-sc--sc-sc--sc-sc--sc-sc--sc--|

riff 1:
C#|--------------------------------------------|
G#|--------------------------------------------|
E |--------------------------------------------|
B |--------------------------------------------|
F#|-9--8--9------------------------------------|
B |-9--8--9--4--4--3----3--4--3--4--6--5--6--8-|
            |________tremolo picking__________|

riff 2:
C#|-------------------------------------------------|
G#|-------------------------------------------------|
E |-----8/7-8/7---7-----8/7-8/7-----8/7-8/7-8/7-----|
B |-----------------6---------------------------6---|
F#|-6-----------6-----5---------7-7---------------5-|
B |-------------------------------------------------|

riff 3
part 1:
C#|-------------------------------------------------------------|
G#|-------------------------------------------------------------|
E |-------------------------------------------------------------|
B |-14-13--12-13-14-13------------------------------------------|
F#|---------------------12-13-14-13-----------------------------|
B |---------------------------------14-13--12-13-14-13--0-1-2-1-|

part 2:
C#|---------|
G#|---------|
E |---------|
B |---------|
F#|-0-1-2-1-|
B |-0-1-2-1-|

riff 4
part 1:
C#|-------|-------------------------|
G#|-------|-------------------------|
E |-------|-------------------------|
B |-------|-------------------------|
F#|-18/0--|-2-1---0-1-2-1---0-1-2-1-|
B |-18/0--|-2-1---0-1-2-1---0-1-2-1-|
   |_1x_|

part 2:
C#|--------------------------|-------------------------|
G#|--------------------------|-------------------------|
E |--------------------------|-------------------------|
B |--------------------------|-------------------------|
F#|-2-1---0-1-2-1---0-1------|-------------------------|
B |-2-1---0-1-2-1---0-1-20/0-|--2p1--0-1-2-1-2-0-1-2-1-|
   |________play 1x_________|

riff 5
guitar 1:
C#|------------------------------------------------|
G#|------------------------------------------------|
E |------------------------------------------------|
B |------------------------------------------------|
F#|-9--9--9----------------------------------------|
B |-9--9--9--9--9--8----8--9--8--9--11--10--11--13-|
            |________tremolo picking__________|

guitar 2:
C#|-----------------------------------------------|
G#|-----------------------------------------------|
E |-----------------------------------------------|
B |----------8--8--7----7--8--7--8--10--9--10--12-|
F#|-----------------------------------------------|
B |-----------------------------------------------|
            |__________tremolo picking___________|







I Am Hated

Intro Riff (Gtrs. 1 & 2)

B |----------------------|----------------------|
F#|----------------------|----------------------|
B |--4-2-0-5-6-4-2-0-5-6-|-4-2-0-5-6------------|
  pm |- - - - - - - - - - - - - - -|



Verse Riff A (Gtr. 1)

E |--------------------8-8-----|
B |------------------------7---|   Play 8 times
F#|--5-----5-5-6-6-5-5-------6-|
B |----0-0---------------------|
  pm |- - - - - - - -|         



Verse Riff B (Gtr. 2)

F#|----4-------------4---------|
B |--0---0-5---6---0---0---5-6-|



Verse Riff B1 (Gtr. 2)

F#|----4---------------------------|
B |--0---0-----5---6---3---0---5-6-|



[Verse Riff B 2 times]    

Added On December 12th, 2013

SHARE

Comments

blog comments powered by Disqus

ADVERTISEMENT