Slipknot Tabs

Killers Are Quiet

1 versions

TAB

            Killers Are Quiet Tab by Slipknot


Slipknot - Killers Are Quiet
Submitted By: Sqweeky
EMail: Blindside831@aol.com
Album: Mate, Feed, Kill, Repeat
Transcribed by: Purity
Email: Purity777@hotmail.com
Address: http://committed.to/purity

Drop D, Detuned 1/2 Step
Db Ab Db Gb Bb Eb

h - hammer on
p - pull off
b - bend

This song is almost 11 minutes long, but the whole
thing only has three guitar riffs. I'm not sure if
the tuning is right or not. The rest of
Mate, Feed, Kill, Repeat (the songs I've tabbed anyway,
are only detuned 1/2 step, instead of 1 1/2.

 Riff 1
|---------------|
|---------------|
|---------------|
|---------------|
|-14------------|
|----12h14----9-|
                                                                              
 Riff 2
|--------------|--------------|
|--------------|--------------|
|-5b------6--3-|-5b-----------|
|-3b--5---4--1-|-3b--5--------|
|-----3--------|-----3--------|
|--------------|--------------|
                                                                              
 Riff 3a                        Riff 3b
|--------------| If 3a doesn't |--------------|
|--------------| sound right,  |--------------|
|-4b------5--2-|    try 3b     |-4b--2---5--2-|
|-----4--------|               |--------------|
|--------------|               |--------------|
|--------------|               |--------------|

 Riff 4 (Bass Transcribed for Guitar)
|-----------------|
|-----------------|
|-----------------|
|-----------------|
|-----------------|
|-0-0-1-0-0-1-0-1-|

                                                                              

Song Structure: Riff 1
                Riff 2
                Riff 3
                Riff 2
                Riff 3
                Riff 2 
                Riff 1
                Riff 2
                Riff 4 (optoinal)
Ends in 4 minutes of percussion, with riff 4 on bass.    

Added On December 12th, 2013

SHARE

Comments

blog comments powered by Disqus

ADVERTISEMENT