Slipknot Tabs

Killpop

1 versions

TAB

            SLIPKNOT 

KILLPOP

B-F#-B-E-G#-C#


TABBED BY andherembrace




20:24


1
----------------------------------------------------------|
-13--13--13--13-12-12-12-12--13--13--13--13-12-12-12-12---|
--X---X---X---X--X--X--X--X---X---X---X---X--X--X--X--X---|
-10--10--10--10--9--9--9--9--10--10--10--10--9--9--9--9---|
----------------------------------------------------------|
----------------------------------------------------------|

2
----------------------------------------------------------|
----------------------------------------------------------|
-12--12--12--12-11-11-11-11--12--12--12--12-11-11-11-11---|
-10--10--10--10--9--9--9--9--10--10--10--10--9--9--9--9---|
----------------------------------------------------------|
----------------------------------------------------------|




1
-------------------------------------------------|
-7--7--7--7--8--8--8--8--7--7--7--7--8--8--8--8--|
-X--X--X--X--X--X--X--X--X--X--X--X--X--X--X--X--|
-4--4--4--4--5--5--5--5--4--4--4--4--5--5--5--5--|
-------------------------------------------------|
-------------------------------------------------|

2
--------------------------------------------------------|
--------------------------------------------------------|
11-11-11-11--12--12--12--12-11-11-11-11--12--12--12--12-|
-9--9--9--9--10--10--10--10--9--9--9--9--10--10--10--10-|
--------------------------------------------------------|
--------------------------------------------------------|

3
-14----------15-------------14----------15-------------|
-----15----------17-------------15----------17---------|
-------------------------------------------------------|
-------------------------------------------------------|
-------------------------------------------------------|
-------------------------------------------------------|




1
-------------------------------------------------|
-7--7--7--7--8--8--8--8--7--7--7--7--8--8--8--8--|
-X--X--X--X--X--X--X--X--X--X--X--X--X--X--X--X--|
-4--4--4--4--5--5--5--5--4--4--4--4--5--5--5--5-/|
-------------------------------------------------|
-------------------------------------------------|

2
--------------------------------------------------------|
--------------------------------------------------------|
11-11-11-11--12--12--12--12-11-11-11-11--12--12--12--12-|
-9--9--9--9--10--10--10--10--9--9--9--9--10--10--10--10-|
--------------------------------------------------------|
--------------------------------------------------------|

3
-14----------15-------------14----------15-------------|
-----15----------17-------------15----------17---------|
-------------------------------------------------------|
-------------------------------------------------------|
-------------------------------------------------------|
-------------------------------------------------------|




1
----------------------------------------------------------|
-13--13--13--13-12-12-12-12--13--13--13--13-12-12-12-12---|
--X---X---X---X--X--X--X--X---X---X---X---X--X--X--X--X---|
-10--10--10--10--9--9--9--9--10--10--10--10--9--9--9--9---|
----------------------------------------------------------|
----------------------------------------------------------|

2
----------------------------------------------------------|
----------------------------------------------------------|
-12--12--12--12-11-11-11-11--12--12--12--12-11-11-11-11---|
-10--10--10--10--9--9--9--9--10--10--10--10--9--9--9--9---|
----------------------------------------------------------|
----------------------------------------------------------|






1
-------------------------------------------------|
-7--7--7--7--8--8--8--8--7--7--7--7--8--8--8--8--|
-X--X--X--X--X--X--X--X--X--X--X--X--X--X--X--X--|
-4--4--4--4--5--5--5--5--4--4--4--4--5--5--5--5--|
-------------------------------------------------|
-------------------------------------------------|

2
--------------------------------------------------------|
--------------------------------------------------------|
11-11-11-11--12--12--12--12-11-11-11-11--12--12--12--12-|
-9--9--9--9--10--10--10--10--9--9--9--9--10--10--10--10-|
--------------------------------------------------------|
--------------------------------------------------------|

3
-14----------15-------------14----------15-------------|
-----15----------17-------------15----------17---------|
-------------------------------------------------------|
-------------------------------------------------------|
-------------------------------------------------------|
-------------------------------------------------------|


1
-------------------------------------------------|
-7--7--7--7--8--8--8--8--7--7--7--7--8--8--8--8--|
-X--X--X--X--X--X--X--X--X--X--X--X--X--X--X--X--|
-4--4--4--4--5--5--5--5--4--4--4--4--5--5--5--5-/|
-------------------------------------------------|
-------------------------------------------------|

2
--------------------------------------------------------|
--------------------------------------------------------|
11-11-11-11--12--12--12--12-11-11-11-11--12--12--12--12-|
-9--9--9--9--10--10--10--10--9--9--9--9--10--10--10--10-|
--------------------------------------------------------|
--------------------------------------------------------|

3
-14----------15-------------14----------15-------------|
-----15----------17-------------15----------17---------|
-------------------------------------------------------|
-------------------------------------------------------|
-------------------------------------------------------|
-------------------------------------------------------|







21;00


-------------------------------------------------------------------------|
-------------------------------------------------------------------------|
-------------------------------------------------------------------------|
-------------------------------------------------------------------------|
-------------------------------------------------------------------------|
-0-2~--5-4~--2-2-2-2-2-2-2-2-2-2-2-2-2-2-2-2-0-0-0-0-0-0-0-0-5-4~--0-4~--|
             * * * * * * * * * * * * * * * * * * * * * * * * 

--------------------------------------------------------------|
--------------------------------------------------------------|
--------------------------------------------------------------|
--------------------------------------------------------------|
--------------------------------------------------------------|
-2-2-2-2-2-2-2-2-2-2-2-2-2-2-2-2-0-0-0-0-0-0-0-0-8-7~--0-4~---|
 * * * * * * * * * * * * * * * * * * * * * * * * 





21:14

L
-------------------------------------------------------------|
-------------------------------------------------------------|
-------------------------------------------------------------|
-------------------------------------------------------------|
-------------------------------------------------------------|
2-2-2-2-2-2-2-2-2-2-2-2-2-2-5-5-5-5-4-4-4-4-4-4-4-4-4-4-4-4--|

R
------------------------------------------------------------|
------------------------------------------------------------|
------------------------------------------------------------|
------------------------------------------------------------|
------------------------------------------------------------|
2-2-2-2-2-2-2-2-2-2-2-2-2-2-5-5-5-5-4-4-4-4-4-4-4-4-4-4-4-4-|


L
--------------------------------------------------------------------------|
--------------------------------------------------------------------------|
--------------------------------------------------------------------------|
---------------------------------10-10-10-10-9-9-9-9-9-9-9-9-9-9-9-9-9-9--|
-7-7-7-7-6-6-6-6-6-6-6-6-6-6-6-6------------------------------------------|
--------------------------------------------------------------------------|

R
------------------------------------------------------------------------|
------------------------------------------------------------------------|
------------------------------------------------------------------------|
------------------------------------------------------------------------|
-3-3-3-3-2-2-2-2-2-2-2-2-2-2-2-2-3-3-3-3-2-2-2-2-2-2-2-2-2-2-2-2--------|
-----------------------------------------------------------------/-\----|



L
-------------------------------------------------------------|
-------------------------------------------------------------|
-------------------------------------------------------------|
-------------------------------------------------------------|
----------------------------5-5-5-5-7-7-4-4-4-4-4-4-4-4-4-4--|
2-2-2-2-2-2-2-2-2-2-2-2-2-2----------------------------------|

R
-------------------------------------------------------------|
-------------------------------------------------------------|
-------------------------------------------------------------|
-------------------------------------------------------------|
-------------------------------------------------------------|
2-2-2-2-2-2-2-2-2-2-2-2-2-2-5-5-5-5-7-7-4-4-4-4-4-4-4-4-4-4--|


L
-------------------------------------------------------------------------|
-------------------------------------------------------------------------|
-------------------------------------------------------------------------|
---------------------------------10-10-10-10-9-9-9-9-9-9-9-9-9-9-9-9-9-9-|
-7-7-7-7-6-6-6-6-6-6-6-6-6-6-6-6-----------------------------------------|
-------------------------------------------------------------------------|

R
-------------------------------------------------------------------------|
-------------------------------------------------------------------------|
-------------------------------------------------------_-----------------|
------------------------------------------------------/ \----------------|
-3-3-3-3-2-2-2-2-2-2-2-2-2-2-2-2-3-3-3-3-2-2-2-2-2-2-2-3-2-0-2-0---------|
-----------------------------------------------------------------5-4-5---|




21:43

FILTERED
------------------------------------------------------------------|
------------------------------------------------------------------|
-6-6-6-6-7-7-7-7-6-6-6-6-7-7-7-7-6-6-6-6-7-7-7-7-6-6-6-6-7-7-7-7--|
-4-4-4-4-5-5-5-5-4-4-4-4-5-5-5-5-4-4-4-4-5-5-5-5-4-4-4-4-5-5-5-5--|
------------------------------------------------------------------|
------------------------------------------------------------------|




1
----------------------------------------------------------|
-13--13--13--13-12-12-12-12--13--13--13--13-12-12-12-12---|
--X---X---X---X--X--X--X--X---X---X---X---X--X--X--X--X---|
-10--10--10--10--9--9--9--9--10--10--10--10--9--9--9--9---|
----------------------------------------------------------|
----------------------------------------------------------|

2
----------------------------------------------------------|
----------------------------------------------------------|
-12--12--12--12-11-11-11-11--12--12--12--12-11-11-11-11---|
-10--10--10--10--9--9--9--9--10--10--10--10--9--9--9--9---|
----------------------------------------------------------|
----------------------------------------------------------|




1
-------------------------------------------------|
-7--7--7--7--8--8--8--8--7--7--7--7--8--8--8--8--|
-X--X--X--X--X--X--X--X--X--X--X--X--X--X--X--X--|
-4--4--4--4--5--5--5--5--4--4--4--4--5--5--5--5--|
-------------------------------------------------|
-------------------------------------------------|

2
--------------------------------------------------------|
--------------------------------------------------------|
11-11-11-11--12--12--12--12-11-11-11-11--12--12--12--12-|
-9--9--9--9--10--10--10--10--9--9--9--9--10--10--10--10-|
--------------------------------------------------------|
--------------------------------------------------------|

3
-14----------15-------------14----------15-------------|
-----15----------17-------------15----------17---------|
-------------------------------------------------------|
-------------------------------------------------------|
-------------------------------------------------------|
-------------------------------------------------------|




1
-------------------------------------------------|
-7--7--7--7--8--8--8--8--7--7--7--7--8--8--8--8--|
-X--X--X--X--X--X--X--X--X--X--X--X--X--X--X--X--|
-4--4--4--4--5--5--5--5--4--4--4--4--5--5--5--5--|
-------------------------------------------------|
-------------------------------------------------|

2
--------------------------------------------------------|
--------------------------------------------------------|
11-11-11-11--12--12--12--12-11-11-11-11--12--12--12--12-|
-9--9--9--9--10--10--10--10--9--9--9--9--10--10--10--10-|
--------------------------------------------------------|
--------------------------------------------------------|

3
-14----------15-------------14----------15-------------|
-----15----------17-------------15----------17---------|
-------------------------------------------------------|
-------------------------------------------------------|
-------------------------------------------------------|
-------------------------------------------------------|







22:14


-------------------------------------------------------------------------|
-------------------------------------------------------------------------|
-------------------------------------------------------------------------|
-------------------------------------------------------------------------|
-------------------------------------------------------------------------|
-8-7~--0-4~--2-2-2-2-2-2-2-2-2-2-2-2-2-2-2-2-0-0-0-0-0-0-0-0-5-4~--0-4~--|
             * * * * * * * * * * * * * * * * * * * * * * * * 

--------------------------------------------------------------|
--------------------------------------------------------------|
--------------------------------------------------------------|
--------------------------------------------------------------|
--------------------------------------------------------------|
-2-2-2-2-2-2-2-2-2-2-2-2-2-2-2-2-0-0-0-0-0-0-0-0-8-7~--0-4~---|





L
-------------------------------------------------------------|
-------------------------------------------------------------|
-------------------------------------------------------------|
-------------------------------------------------------------|
-------------------------------------------------------------|
2-2-2-2-2-2-2-2-2-2-2-2-2-2-5-5-5-5-4-4-4-4-4-4-4-4-4-4-4-4--|

R
------------------------------------------------------------|
------------------------------------------------------------|
------------------------------------------------------------|
------------------------------------------------------------|
------------------------------------------------------------|
2-2-2-2-2-2-2-2-2-2-2-2-2-2-5-5-5-5-4-4-4-4-4-4-4-4-4-4-4-4-|


L
--------------------------------------------------------------------------|
--------------------------------------------------------------------------|
--------------------------------------------------------------------------|
---------------------------------10-10-10-10-9-9-9-9-9-9-9-9-9-9-9-9-9-9--|
-7-7-7-7-6-6-6-6-6-6-6-6-6-6-6-6------------------------------------------|
--------------------------------------------------------------------------|

R
------------------------------------------------------------------------|
------------------------------------------------------------------------|
------------------------------------------------------------------------|
------------------------------------------------------------------------|
-3-3-3-3-2-2-2-2-2-2-2-2-2-2-2-2-3-3-3-3-2-2-2-2-2-2-2-2-2-2-2-2--------|
-----------------------------------------------------------------/-\----|



L
-------------------------------------------------------------|
-------------------------------------------------------------|
-------------------------------------------------------------|
-------------------------------------------------------------|
----------------------------5-5-5-5-7-7-4-4-4-4-4-4-4-4-4-4--|
2-2-2-2-2-2-2-2-2-2-2-2-2-2----------------------------------|

R
-------------------------------------------------------------|
-------------------------------------------------------------|
-------------------------------------------------------------|
-------------------------------------------------------------|
-------------------------------------------------------------|
2-2-2-2-2-2-2-2-2-2-2-2-2-2-5-5-5-5-7-7-4-4-4-4-4-4-4-4-4-4--|





L
----------------------------------------------------------|
----------------------------------------------------------|
----------------------------------------------------------|
---------------------------------10-10-10-10-9-9-9-9-9-9--|
-7-7-7-7-6-6-6-6-6-6-6-6-6-6-6-6--------------------------|
----------------------------------------------------------|

R
-----------------------------------------------------|
-----------------------------------------------------|
-----------------------------------------------------|
-----------------------------------------------------|
-3-3-3-3-2-2-2-2-2-2-2-2-2-2-2-2-3-3-3-3-2-2-2-2-2-2-|
-----------------------------------------------------|



L
---------------------------------------------------------------------------------|
---------------------------------------------------------------------------------|
--^----^----^----^----^----^----^----^----^----^----^----^----^----^----^----^---|
-9-10-9-10-9-10-9-10-9-10-9-10-9-10-9-10-9-10-9-10-9-10-9-10-9-10-9-10-9-10-9-10-|
---------------------------------------------------------------------------------|
---------------------------------------------------------------------------------|

R
-----------------------------------------------------------------|
-----------------------------------------------------------------|
-----------------------------------------------------------------|
--^---^---^---^---^---^---^---^---^---^---^---^---^---^---^---^--|
-2-3-2-3-2-3-2-3-2-3-2-3-2-3-2-3-2-3-2-3-2-3-2-3-2-3-2-3-2-3-2-3-|
-----------------------------------------------------------------|





22:56


SOLO

   ///    ///    ///    ///    ///   ///                     
-/-15-----14--/--17-----15--/--19-----15------------------|
--------------------------------------------17~~-\--------|
----------------------------------------------------------|
----------------------------------------------------------|
----------------------------------------------------------|
----------------------------------------------------------|

RYTYHM THRU SOLO PLAYED TWICE
------------------------------------------------------------------|
------------------------------------------------------------------|
------------------------------------------------------------------|
-----------------4-5-----------------------------4-5--------------|
-2-0-2-4-5-4-2-4-2/3-2-4-5-4-2-4-2-0-2-4-5-4-2-4-2/3-2-4-5-4-2-4--|
-2-0-2-4-5-4-2-4-----2-4-5-4-2-4-2-0-2-4-5-4-2-4-----2-4-5-4-2-4--|


       ___________
      /           \     ___________
----14-15-17-15-14\12--/           \------__-------_____--------------------------------------|
-/-------------------12-13-15-13-12\11---/  \-----/     \----_______________------_____-------|
---------------------------------------11-12-14-14-12-11\9--/               \----/     \------|
-----------------------------------------------------------9-10-12-10-9-10-9\7-10-9-7-9-7-----|
-----------------------------------------------------------------------------------------10-7-|
----------------------------------------------------------------------------------------------|

     __           __________________________
----/  \---------/                          \------__---------|
--12-13-12-----12/13-17-15-13-15-13\12-13-12-10---/  \--------|
------------------------------------------------11-12-11-9----|
-/------------------------------------------------------------|
--------------------------------------------------------------|
--------------------------------------------------------------|

                             )()(
---------------------------12------|
-12----10--------------------------|
----9-----9--12----11--------------|
----------------9------9-----------|
-----------------------------------|
-----------------------------------|







23:08


------------------------------------------------------------------|
------------------------------------------------------------------|
------------------------------------------------------------------|
-----------------4-5-----------------------------4-5--------------|
-2-0-2-4-5-4-2-4-2/3-2-4-5-4-2-4-2-0-2-4-5-4-2-4-2/3-2-4-5-4-2-4--|
-2-0-2-4-5-4-2-4-----2-4-5-4-2-4-2-0-2-4-5-4-2-4-----2-4-5-4-2-4--|

------------------------------------------------------------------|
------------------------------------------------------------------|
------------------------------------------------------------------|
-----------------4-5-----------------------------4-5--------------|
-2-0-2-4-5-4-2-4-2/3-2-4-5-4-2-4-2-0-2-4-5-4-2-4-2/3-2-4-5-4-2-4--|
-2-0-2-4-5-4-2-4-----2-4-5-4-2-4-2-0-2-4-5-4-2-4-----2-4-5-4-2-4--|


------------------------------------------------------------------|
------------------------------------------------------------------|
------------------------------------------------------------------|
-----------------4-5-----------------------------4-5--------------|
-2-0-2-4-5-4-2-4-2/3-2-4-5-4-2-4-2-0-2-4-5-4-2-4-2/3-2-4-5-4-2-4--|
-2-0-2-4-5-4-2-4-----2-4-5-4-2-4-2-0-2-4-5-4-2-4-----2-4-5-4-2-4--|


--------------------------------------------------|
--------------------------------------------------|
--------------------------------------------------|
-----------------4-5------------------------------|
-2-0-2-4-5-4-2-4-2/3-2-4-5-4-2-4-2-0-2-4-5-4-2-4--|
-2-0-2-4-5-4-2-4-----2-4-5-4-2-4-2-0-2-4-5-4-2-4--|
                                 * * * * * * * *    

Added On October 8th, 2014

SHARE

Comments

blog comments powered by Disqus

ADVERTISEMENT