Slipknot Tabs

Liberate

10 versions

TAB

            Liberate Tab by Slipknot


Slipknot, Liberate.
Tabbed by Cavan, powerstruck15@cs.com.
  
Tuning- B-F#-B-E-G#-C#

Intro/Chorus
B |-1-0-0--0-0-0-0-0-|
F#|-1-0-0--0-0-0-0-0-|
B |-1-0-0--0-0-0-0-0-|

Verse
B |-1-0--1-0--2-2-2-|
F#|-1-0--1-0--2-2-2-|
B |-1-0--1-0--2-2-2-|

Pre-Chorus
B |-2\1-0-0-0-0-|
F#|-2\1-0-0-0-0-|
B |-2\1-0-0-0-0-|

Verse 3
B |-0-1-0-1-0-1-|---then---------|
F#|-0-1-0-1-0-1-|-3~~~~~~~~2~~~~~|
B |-0-1-0-1-0-1-|----------------|

Bridge
B |-2-1-0-1-|
F#|-2-1-0-1-|
B |-2-1-0-1-| 
:: Ultimate Guitar Archive :: 
http://www.ultimate-guitar.com    

Added On December 12th, 2013

SHARE

Comments

blog comments powered by Disqus