Slipknot Tabs

Me Inside

3 versions

TAB

            Me Inside Tab by Slipknot


Me Inside-Slipknot
Slipknot

Drop B
B F# B E G# C#


gtr 1 Fig 1. x2

e-----------------------------------------------------------------
b-----------------------------------------------------------------
g-----------------------------------------------------------------
d-----------------------------------------------------------------
a-0-1-0----0-1-0----0-1-0----0-1-0----0-1-0----0-1-0----0-1-0-----
d-0-1-0----0-1-0----0-1-0----0-1-0----0-1-0----0-1-0----0-1-0-----

gtr 2 Riff A x2

w/ wah
e-----------------------------------------------------------------
b-----------------------------------------------------------------
g-777777777777777777777777777777777777777777777777777777777777777-
d-----------------------------------------------------------------
a-----------------------------------------------------------------
d-----------------------------------------------------------------

gtr 1

e-----------------------------------------------------------------
b-----------------------------------------------------------------
g-----------------------------------------------------------------
d-----------------------------------------------------------------
a-1p0-1p0--0--x-1p0-1p0--0--x-1p0-1p0--0--x-1p0-1p0--0--x---------
d-1p0-1p0--0--x-1p0-1p0--0--x-1p0-1p0--0--x-1p0-1p0--0--x---------

gtr 2

e-----------------------------------------------------------------
b-----------------------------------------------------------------
g-777777777777777777777777777777777777777777777777777777777777777-
d-----------------------------------------------------------------
a-----------------------------------------------------------------
d-----------------------------------------------------------------

both gtr 2.

e-----------------------------------------------------------------
b-----------------------------------------------------------------
g-----------------------------------------------------------------
d-----------------------------------------------------------------
a-1p0-1p0--0--x-1p0-1p0--0--x-1p0-1p0--0--x-1p0-1p0--0--x---------
d-1p0-1p0--0--x-1p0-1p0--0--x-1p0-1p0--0--x-1p0-1p0--0--x---------

e-20p16----17p15p14--14h17-14h16p14-21--16p14-17p14----14h17p14-21
b-------17-----------------------------------------17-------------
g----------------------------------------------------14-----------
d-----------------------------------------------------------------
a-----------------------------------------------------------------
d-----------------------------------------------------------------

Verse 1 ...giving in to what has......

gtr 2 Riff B w/ heavy slow phaser

e----16------15---------17-----16------15---------17--------------
b-------15------14----------------15------14----------------------
g-14---------------13---15--14---------------13---15--------------
d-----------------------------------------------------------------
a-----------------------------------------------------------------
d-----------------------------------------------------------------

gtr 1. Riff B1

e-----------------------------------------------------------------
b-----------------------------------------------------------------
g-----------------------------------------------------------------
d-----------------------------------------------------------------
a-----------------------------------------------------------------
d-3-0-2-3-1-2----3-0-2-3-1-2----3-0-2-3-1-2----3-0-2-3-1-2--------

Chorus ...tearing me, Inside!...

e-----------------------------------------------------------------
b-----------------------------------------------------------------
g-----------7----7b--------------7----7b--------------7---7b------
d-----------x----x---------------x----x---------------x---x-------
a-1-1---1---5----5b----1-1---1---5----5b----1-1---1---5---5b------
d-1-1---1--------------1-1---1--------------1-1---1---------------

Verse 2  ...too far gone i’m catatonic...

e-----------------------------------------------------------------
b-----------------------------------------------------------------
g-----------------------------------------------------------------
d-----------------------------------------------------------------
a-----------------------------------------------------------------
d-3-0-2-3-1-2~~~-3-0-2-3-1-2~~~-3-0-2-3-1-2~~~-3-0-2-3-1-2--------

Bridge   ...I   wasn’t promised a thing...

Fig 3
e-----------------------------------------------------------------
b-----------------------------------------------------------------
g--------------------------------5/7-7-7-7/8-8-8------------------
d--------------------------------x-x-x-x-x-x-x-x------------------
a-0---6-5-3---1-1h3-1----0-------3/5-5-5-5/6-6-6------------------
d-0---6-5-3---1-1h3-1----0----------------------------------------

Gone !

e-----------------------------------------------------------------
b-----------------------------------------------------------------
g-----------------------------------------------------------------
d-----------------------------------------------------------------
a-1--0--0-0--0-1--0--0-0--0--1--0--0-0--0-1--0--0-0--0------------
d-1--0--0-0--0-1--0--0-0--0--1--0--0-0--0-1--0--0-0--0------------

e-----------------------------------------------------------------
b-----------------------------------------------------------------
g-----------------------------------------------------------------
d-----------------------------------------------------------------
a-1p0-0---0--0-1p0-0--0--0-1p0-0--0--0-1p0-0--0-0-----------------
d-1p0-0---0--0-1p0-0--0--0-1p0-0--0--0-1p0-0--0-0-----------------

Outro:

e-----------------------------------------------------------------
b-----------------------------------------------------------------
g-7-7-7-7-7-7-7-7-7-7-7-7-7-7-7-7-7-7-7-7-7-7-7-7-7-7-7-7-7-7-7-7-
d-x-x-x-x-x-x-x-x-x-x-x-x-x-x-x-x-x-x-x-x-x-x-x-x-x-x-x-x-x-x-x-x-
a-5-5-5-5-5-5-5-5-5-5-5-5-5-5-5-5-5-5-5-5-5-5-5-5-5-5-5-5-5-5-5-5-
d-----------------------------------------------------------------

e-----------------------------------------------------------------
b-----------------------------------------------------------------
g-----------------------------------------------------------------
d-----------------------------------------------------------------
a-0-0-0-0-0-1---0-0-0-0-0-0-1---0-0-0-0-0-0-1---0-0-0-0-0-0-1-----
d-0-0-0-0-0-1---0-0-0-0-0-0-1---0-0-0-0-0-0-1---0-0-0-0-0-0-1-----

that’s all

trevor jones
timmy91199@yahoo.ca    

Added On December 12th, 2013

SHARE

Comments

blog comments powered by Disqus

VERSIONS

ADVERTISEMENT