Slipknot Tabs

Nomadic

1 versions

TAB

            SLIPKNOT 

NOMADIC


B-F#-B-E-G#-C#


TABBED BY andherembrace







------------------------------------------------------------|
------------------------------------------------------------|
------------------------------------------------------------|
------------------------------------------------------------|
----------------1-------------2---------------3----------)(-|
\-1-1-0---0-1-2---1-0---0-1-2---1-0---0-1-2-3---3-2-1-0-1---|
        |             |             |             

------------------------------------------------------|
------------------------------------------------------|
------------------------------------------------------|
------------------------------------------------------|
----------------1-----------------------3----------)(-|
\-1-1-0---0-1-2---1-0---0-1-2-000-000-3---3-2-1-0-1---|
        |             |       *** ***






0:10


------------------------------------------------------------|
------------------------------------------------------------|
------------------------------------------------------------|
------------------------------------------------------------|
--1-1-0---------1---0---------2---0-----------3----------)(-|
--1-1-0---0-1-2---1-0---0-1-2---1-0---0-1-2-3---3-2-1-0-1---|


------------------------------------------------------------|
------------------------------------------------------------|
------------------------------------------------------------|
------------------------------------------------------------|
--1-1-0---------1---0---------2---0-----------3----------)(-|
--1-1-0---0-1-2---1-0---0-1-2---1-0---0-1-2-3---3-2-1-0-1---|







---------------------------------------------------------------------|
---------------------------------------------------------------------|
---------------------------------------------------------------------|
---------------------------------------------------------------------|
-1-1-0---------3-3-0---------1-1-0----3-3-0----1-1-0---3----------)(-|
-1-1-0---------3-3-0---------1-1-0----3-3-0----1-1-0-----3-2-1-0-1---|
       |             |             |        |        |




0:32


------------------------------------------------------------|
------------------------------------------------------------|
------------------------------------------------------------|
------------------------------------------------------------|
----------------1-------------2---------------3----------)(-|
--1-1-0---0-1-2---1-0---0-1-2---1-0---0-1-2-3---3-2-1-0-1---|
        |             |             |             


------------------------------------------------------------|
------------------------------------------------------------|
------------------------------------------------------------|
------------------------------------------------------------|
----------------1-------------2---------------3----------)(-|
--1-1-0---0-1-2---1-0---0-1-2---1-0---0-1-2-3---3-2-1-0-1---|
        |             |             |             





0:42




R GTR PLAYS 6TH+ 5TH STRINGS ONLY ON POWER CHRDS

--------------------------------------------------------|
--------------------------------------------------------|
--------------------------------------------------------|
-1--1--1------------------7--7--7-----------------------|
-1--1--1------------------7--7--7-----------------------|
-1--1--1-5555444477775555-7--7--7-88887777101010108888--|


-------------------------------------|
-------------------------------------|
-------------------------------------|
-1--1--1------------------7--7--7-7--|
-1--1--1------------------7--7--7-7--|
-1--1--1-5555444477775555-7--7--7-7--|








0:53


-------------------------------------------------------------------|
-------------------------------------------------------------------|
-------------------------------------------------------------------|
-------------------------------------------------------------------|
-----------------------------------------------------7------7------|
-15\-0-0-0-0-0-0-4-5-6-6-6-6-6-6-5-6-7-7-7-7-7-7-7-7-8-0000-8-15\--|
                                                       ****


----------------------------------------------------------------|
----------------------------------------------------------------|
----------------------------------------------------------------|
----------------------------------------------------------------|
--------------------------------------------------7------7------|
--0-0-0-0-0-0-4-5-6-6-6-6-6-6-5-6-7-7-7-7-7-7-7-7-8-0000-8-15\--|
                                                    ****


-------------------------------------------------------------|
-------------------------------------------------------------|
-------------------------------------------------------------|
-------------------------------------------------------------|
-0--0-0-0-0-----1--1-1-1-1-----8-8-8-8-8-8-8-8-7------7------|
-0--0-0-0-0-15\-1--1-1-1-1-6-7-8-8-8-8-8-8-8-8-8-0000-8-15\--|
                                                 ****



----------------------------------------------------------------|
----------------------------------------------------------------|
-14-------------------------------------------------------------|
--X-------------------------------------------------------------|
-12-----------------------------------------------7------7------|
--------------4-5-6-6-6-6-6-6-5-6-7-7-7-7-7-7-7-7-8-0000-8-15\--|
                                                    ****

R
----------------------------------------------------------------|
----------------------------------------------------------------|
----------------------------------------------------------------|
----------------------------------------------------------------|
--------------------------------------------------7------7------|
--0-0-0-0-0-0-4-5-6-6-6-6-6-6-5-6-7-7-7-7-7-7-7-7-8-0000-8-15\--|
                                                    ****




1:14



------------------------------------------------------------|
------------------------------------------------------------|
------------------------------------------------------------|
------------------------------------------------------------|
----------------1-------------2---------------3-2-1-0-----1-|
--1-1-0---0-1-2---1-0---0-1-2---1-0---0-1-2-3---------3-2-1-|
        |             |             |             




1
-------------------------------------------------------------|
-------------------------------------------------------------|
-------------------------------------------------------------|
-------------------------------------------------------------|
----------------1-------------2---------------3----------)(--|
--1-1-0---0-1-2---1-0---0-1-2---1-0---0-1-2-3---3-2-1-0-1----|
        |             |             |             
2
-------------------------------------------------------------|
///-----------------------------------------------------///--|
-7-----------------------------------------------------/14---|
-------------------------------------------------------------|
-------------------------------------------------------------|
-------------------------------------------------------------|


1
------------------------------------------------------------|
------------------------------------------------------------|
------------------------------------------------------------|
------------------------------------------------------------|
----------------1-------------2---------------3----------^--|
--1-1-0---0-1-2---1-0---0-1-2---1-0---0-1-2-3---3-2-1-0-1-0-|
        |             |             |             

2
-------------------------------------------------///---///---|
///-----------------------------------------------15---16----|
-7-----------------------------------------------------------|
-------------------------------------------------------------|
-------------------------------------------------------------|
-------------------------------------------------------------|







1:32

-------------------------------------------------------------------|
-------------------------------------------------------------------|
-------------------------------------------------------------------|
-------------------------------------------------------------------|
--^---------------1---------------2-----------------3----------^---|
-1-0-0-0-0-0-0-1----0-0-0-0-0-0-1---0-0-0-0-0-1-2-3---3-2-1-0-1-0--|
     * * * *          * * * *         * * * *

-------------------------------------------------------------------|
-------------------------------------------------------------------|
-------------------------------------------------------------------|
-------------------------------------------------------------------|
--^---------------1---------------2-----------------3--------------|
-1-0-0-0-0-0-0-1----0-0-0-0-0-0-1---0-0-0-0-0-1-2-3---3-2-1-0-1-/-\|
     * * * *          * * * *         * * * *





1:42



R GTR PLAYS 6TH+ 5TH STRINGS ONLY ON POWER CHRDS

--------------------------------------------------------|
--------------------------------------------------------|
--------------------------------------------------------|
-1--1--1------------------7--7--7-----------------------|
-1--1--1------------------7--7--7-----------------------|
-1--1--1-5555444477775555-7--7--7-88887777101010108888--|


-------------------------------------|
-------------------------------------|
-------------------------------------|
-1--1--1------------------7--7--7-7--|
-1--1--1------------------7--7--7-7--|
-1--1--1-5555444477775555-7--7--7-7--|





1:54


-------------------------------------------------------------------|
-------------------------------------------------------------------|
-------------------------------------------------------------------|
-------------------------------------------------------------------|
-15\-------------------------------------------------7------7------|
-15\-0-0-0-0-0-0-4-5-6-6-6-6-6-6-5-6-7-7-7-7-7-7-7-7-8-0000-8-15\--|
                                                       ****


----------------------------------------------------------------|
----------------------------------------------------------------|
----------------------------------------------------------------|
----------------------------------------------------------------|
--------------------------------------------------7------7------|
--0-0-0-0-0-0-4-5-6-6-6-6-6-6-5-6-7-7-7-7-7-7-7-7-8-0000-8-15\--|
                                                    ****


-------------------------------------------------------------|
-------------------------------------------------------------|
-------------------------------------------------------------|
-------------------------------------------------------------|
-0--0-0-0-0-----1--1-1-1-1-----8-8-8-8-8-8-8-8-7------7-15---|
-0--0-0-0-0-15\-1--1-1-1-1-6-7-8-8-8-8-8-8-8-8-8-0000-8-15\--|




----------------------------------------------------------------|
----------------------------------------------------------------|
-14-------------------------------------------------------------|
--X-------------------------------------------------------------|
-12-----------------------------------------------7------7------|
--------------4-5-6-6-6-6-6-6-5-6-7-7-7-7-7-7-7-7-8-0000-8-15\--|
                                                    ****

R
----------------------------------------------------------------|
----------------------------------------------------------------|
----------------------------------------------------------------|
----------------------------------------------------------------|
--------------------------------------------------7------7------|
--0-0-0-0-0-0-4-5-6-6-6-6-6-6-5-6-7-7-7-7-7-7-7-7-8-0000-8-15\--|
                                                    ****





2:14



--------------------------------------------------|
--------------------------------------------------|
--------------------------------------------------|
---------_-----------_-----------_----------------|
--^-----/ \---^-----/ \---^-----/ \----3--^---^---|
-1-0---0-1-2-1-0---0-1-2-1-0---0-1-2-3---3-2-1-0--|


--------------------------------------------------|
--------------------------------------------------|
--------------------------------------------------|
---------_-----------_-----------_----------------|
--^-----/ \---^-----/ \---^-----/ \----3--^---^---|
-1-0---0-1-2-1-0---0-1-2-1-0---0-1-2-3---3-2-1-0--|


--------------------------------------------------|
--------------------------------------------------|
--------------------------------------------------|
---------_-----------_-----------_----------------|
--^-----/ \---^-----/ \---^-----/ \----3--^---^---|
-1-0---0-1-2-1-0---0-1-2-1-0---0-1-2-3---3-2-1-0--|


--------------------------------------------------|
--------------------------------------------------|
--------------------------------------------------|
---------_-----------_-----------_----------------|
--^-----/ \---^-----/ \---^-----/ \----3--^---^---|
-1-0---0-1-2-1-0---0-1-2-1-0---0-1-2-3---3-2-1-0--|







RYTHM THRU SOLO
2:30-2:52

-------------------------------------------------------------------------------|
-------------------------------------------------------------------------------|
-------------------------------------------------------------------------------|
-------------------------------------------------------------------------------|
-4-4------4-4------5-5-4-4------4-4------5-5-4-4------4-4------5-5-4-4------4--|
-4-4-4444-4-4-4444-5-5-4-4-4444-4-4-4444-5-5-4-4-4444-4-4-4444-5-5-4-4-4444-4--|
     ****     ****         ****     ****         ****     ****         ****    

-------------------------------------|
-------------------------------------|
-------------------------------------|
-------------------------------------|
-4-4------4-2-3-4-3-2-1-2-3-4-3-2-1--|
-4-4-4444-4-2-3-4-3-2-1-2-3-4-3-2-1--|
     ****   * * * * * * * * * * * * 



-------------------------------------------------------------------------------|
-------------------------------------------------------------------------------|
-------------------------------------------------------------------------------|
-------------------------------------------------------------------------------|
-4-4------4-4------5-5-4-4------4-4------5-5-4-4------4-4------5-5-4-4------4--|
-4-4-4444-4-4-4444-5-5-4-4-4444-4-4-4444-5-5-4-4-4444-4-4-4444-5-5-4-4-4444-4--|
     ****     ****         ****     ****         ****     ****         ****    

--------------------------|
--------------------------|
--------------------------|
--------------------------|
-4-4------4-2-3-4-3-2-1---|
-4-4-4444-4-2-3-4-3-2-1---|
     ****   * * * * * * 





2:30


                                 /\                                             /\
-------------------------------141714-----------------------------------------141714------------|
-----/\------^--16--^---------16-----16--^--------/\--------^--16--^--------16------16--^-------|
---141714--14-17--17-14----1417--------17-14----141714----14-17--17-14--1417----------17-14-----|
-15------15------------1615-----------------1515------1615------------15--------------------1615|
------------------------------------------------------------------------------------------------|
------------------------------------------------------------------------------------------------|

                                 /\                                             /\
-------------------------------161916-----------------------------------------161916------------|
-----/\------^--18--^---------18-----16--^--------/\--------^--18--^--------18------18--^-------|
---161916--16-19--19-16----1619--------19-16----161916----16-19--19-16--1619----------19-16-----|
-18------18------------1918-----------------1818------1918------------18--------------------1918|
------------------------------------------------------------------------------------------------|
------------------------------------------------------------------------------------------------|

2:36

--------------------------------------------------------------------------------|
--------------------------------------------------------------------------------|
---)---(----)()()()(------)---(----)()()(------///-GRAD BENDS-TO 19 EQUIVELENT--|
-20------18-------------22-------18------\-----16-------------------------------|
--------------------------------------------------------------------------------|
--------------------------------------------------------------------------------|



2:42


        )(           )(     ^           )     
---12-16--12-------19--17-19-17-16/17-20--17-16-----________----------|
/14----------14-17-----------------------------17--/         \--------|
-------------------------------------------------16\14-13-14-13~~~~\--|
----------------------------------------------------------------------|
----------------------------------------------------------------------|
----------------------------------------------------------------------|

                           __        __          __          __
                  __      /  \      /  \        /  \        /  \
-------_____-----/  \---11-12-14--17-21-17----17-21-17----17-21-17-------|
------/     \--11-12-14--------------------19----------19----------19----|
----11-13-14-16----------------------------------------------------------|
-12----------------------------------------------------------------------|
-------------------------------------------------------------------------|
-------------------------------------------------------------------------|

    __           __          __          __          __
   /  \         /  \        /  \        /  \        /  \
-17-21-17-----16-19-16----16-19-16----16-19-16----16-19-16-----|
----------17----------17----------17----------17----------17---|
---------------------------------------------------------------|
---------------------------------------------------------------|
---------------------------------------------------------------|
---------------------------------------------------------------|

    __          __          __          __
   /  \        /  \        /  \        /  \
-14-17-14----14-17-14----14-17-14----14-17-14---14---/\------|
----------15----------15----------15---------15----171514\---|
-------------------------------------------------------------|
-------------------------------------------------------------|
-------------------------------------------------------------|
-------------------------------------------------------------|

       ______________
      /              \             ____________
----10-12-14-12-10-12-10---10\9---/            \-----------|
-/12--------------------14------10-12-10-9-10-9-10---------|
---------------------------------------------------11~-----|
-----------------------------------------------------------|
-----------------------------------------------------------|
-----------------------------------------------------------|






2:52



---------------------------------------------------------|
---------------------------------------------------------|
---------------------------------------------------------|
---------------------------------------------------------|
-4-4-------------------------4-4-------------------------|
-4-4-4-7-5-0-4-3-0-5-4-0-3-0-4-4-4-7-5-0-4-3-0-5-4-0-3-0-|


--------------------------------------------------|
--------------------------------------------------|
--------------------------------------------------|
--------------------------------------------------|
-4-4-------------------------4-4---------2--5--3--|
-4-4-4-7-5-0-4-3-0-5-4-0-3-0-4-4-4-7-5-0-2--5--3--|





3:03


-------------------------------------------------------------|
-------------------------------------------------------------|
-------------------------------------------------------------|
-------------------------------------------------------------|
-4-----------------------------4-----------------------------|
-4-4-4-4-7-5-0-4-3-0-5-4-0-3-0-4-4-4-4-7-5-0-4-3-0-5-4-0-3-0-|
   * * *                         * * *


------------------------------------------------------|
------------------------------------------------------|
------------------------------------------------------|
------------------------------------------------------|
-4-----------------------------4-------------2--5--3--|
-4-4-4-4-7-5-0-4-3-0-5-4-0-3-0-4-4-4-4-7-5-0-2--5--3--|
   * * *                         * * *







-----------------------------------------------------|
-----------------------------------------------------|
-----------------------------------------------------|
-1--1--1------------------7--7--7--------------------|
-1--1--1------------------7--7--7--------------------|
-1--1--1-5555444477775555-7--7--7-8-7-10-7-8-7-10-7--|
                                  * *  * * * *  * *

------------------------------------------------|
------------------------------------------------|
------------------------------------------------|
-1--1--1----------------------------------------|
-1--1--1--------------------------------------7-|
-1--1--1-555544447777555510101010888877778888-7-|






-------------------------------------------------------------------|
-------------------------------------------------------------------|
-------------------------------------------------------------------|
-------------------------------------------------------------------|
-----------------------------------------------------7------7------|
-15\-0-0-0-0-0-0-4-5-6-6-6-6-6-6-5-6-7-7-7-7-7-7-7-7-8-0000-8-15\--|
                                                       ****


----------------------------------------------------------------|
----------------------------------------------------------------|
----------------------------------------------------------------|
----------------------------------------------------------------|
--------------------------------------------------7------7------|
--0-0-0-0-0-0-4-5-6-6-6-6-6-6-5-6-7-7-7-7-7-7-7-7-8-0000-8-15\--|
                                                    ****


---------------------------------------------------------------|
---------------------------------------------------------------|
---------------------------------------------------------------|
---------------------------------------------------------------|
-0-0-0-0-0-0-0-0-1-1-1-1-1-1-1-1-8-8-8-8-8-8-8-8-7------7------|
-0-0-0-0-0-0-0-0-1-1-1-1-1-1-1-1-8-8-8-8-8-8-8-8-8-0000-8-15\--|
 * * * * * * * * * * * * * * * * * * * * * * * *   ****


L
----------------------------------------------------------------|
----------------------------------------------------------------|
-14-------------------------------------------------------------|
--X-------------------------------------------------------------|
-12-----------------------------------------------7------7------|
--------------4-5-6-6-6-6-6-6-5-6-7-7-7-7-7-7-7-7-8-0000-8-15\--|
                                                    ****

R
----------------------------------------------------------------|
----------------------------------------------------------------|
----------------------------------------------------------------|
----------------------------------------------------------------|
--------------------------------------------------7------7------|
--0-0-0-0-0-0-4-5-6-6-6-6-6-6-5-6-7-7-7-7-7-7-7-7-8-0000-8-15\--|
                                                    ****





3:45


-------------------------------------------------------------------|
-------------------------------------------------------------------|
-------------------------------------------------------------------|
-------------------------------------------------------------------|
--^---------------1---------------2-----------------3----------^---|
-1-0-0-0-0-0-0-1----0-0-0-0-0-0-1---0-0-0-0-0-1-2-3---3-2-1-0-1-0--|
     * * * *          * * * *         * * * *

-------------------------------------------------------------------|
-------------------------------------------------------------------|
-------------------------------------------------------------------|
-------------------------------------------------------------------|
--^---------------1---------------2-----------------3-----------^--|
-1-0-0-0-0-0-0-1----0-0-0-0-0-0-1---0-0-0-0-0-1-2-3---3-2-1-0-1--0-|
     * * * *          * * * *         * * * *




3:55

------------------------------------------------------------|
------------------------------------------------------------|
------------------------------------------------------------|
------------------------------------------------------------|
----------------1-------------2---------------3----------)(-|
--1-1-0---0-1-2---1-0---0-1-2---1-0---0-1-2-3---3-2-1-0-1---|


------------------------------------------------------------|
------------------------------------------------------------|
------------------------------------------------------------|
------------------------------------------------------------|
----------------1-------------2---------------3----------)(-|
--1-1-0---0-1-2---1-0---0-1-2---1-0---0-1-2-3---3-2-1-0-1---|



------------------------------------------------------------|
------------------------------------------------------------|
------------------------------------------------------------|
------------------------------------------------------------|
----------------1-------------2---------------3----------)(-|
--1-1-0---0-1-2---1-0---0-1-2---1-0---0-1-2-3---3-2-1-0-1---|


------------------------------------------------------------|
------------------------------------------------------------|
------------------------------------------------------------|
------------------------------------------------------------|
----------------1-------------2---------------3---------1-0-|
--1-1-0---0-1-2---1-0---0-1-2---1-0---0-1-2-3---3-2-1-0-1-0-|    

Added On October 9th, 2014

SHARE

Comments

blog comments powered by Disqus

ADVERTISEMENT