Slipknot Tabs

Override

1 versions

TAB

            SLIPKNOT


OVERRIDE

B-F#-B-E-G#-C#


TABBED BY andherembrace





0:36
-------------------------------------------------------------------|
-------------------------------------------------------------------|
-------------------------------------------------------------------|
---------2-------------------------------2-------------------------|
-222-3-2-0-3-2-0-333-5-3-3-5-3-5-222-3-2-0-3-2-0-333-5-3-3-5-3-5---|
-222-3-2---3-2-0-333-5-3-3-5-3-5-222-3-2---3-2-0-333-5-3-3-5-3-5---|
 *** * * * * * * *** * * * * *   *** * * * * * * *** * * * * * *

-------------------------------------------------------------------|
-------------------------------------------------------------------|
-------------------------------------------------------------------|
---------2-------------------------------2-------------------------|
-222-3-2-0-3-2-0-333-5-3-3-5-3-5-222-3-2-0-3-2-0-333-5-3-3-5-3-5---|
-222-3-2---3-2-0-333-5-3-3-5-3-5-222-3-2---3-2-0-333-5-3-3-5-3-5---|
 *** * * * * * * *** * * * * *   *** * * * * * * *** * * * * * *

-------------------------------------------------------------------|
-------------------------------------------------------------------|
-------------------------------------------------------------------|
---------2-------------------------------2-------------------------|
-222-3-2-0-3-2-0-333-5-3-3-5-3-5-222-3-2-0-3-2-0-333-5-3-3-5-3-5---|
-222-3-2---3-2-0-333-5-3-3-5-3-5-222-3-2---3-2-0-333-5-3-3-5-3-5---|
 *** * * * * * * *** * * * * *   *** * * * * * * *** * * * * * *





0:59

1
------------------------------------------------------------------|
------------------------------------------------------------------|
------------------------------------------------------------------|
------------------------------------------------------------------|
-222-3-2-5-3-2-5-222-3-2-2-3-2-3-222-3-2-5-3-2-5-222-3-2-2-3-2-3--|
-222-3-2-5-3-2-5-222-3-2-2-3-2-3-222-3-2-5-3-2-5-222-3-2-2-3-2-3--|
 *** * * * * * * *** * * * * * * *** * * * * * * *** * * * * * *

2
----------___________----------------------___________-------------|
----------)---------(----------------------)---------(-------------|
-------------------------------------------------------------------|
-------------------------------------------------------------------|
-7-----------------------------[7]---------------------------------|
-------------------------------------------------------------------|



-------------------------------------------------------------------|
-------------------------------------------------------------------|
-------------------------------------------------------------------|
---------2-------------------------------2-------------------------|
-222-3-2-0-3-2-0-333-5-3-3-5-3-5-222-3-2-0-3-2-0-333-5-3-3-5-3-5---|
-222-3-2---3-2-0-333-5-3-3-5-3-5-222-3-2---3-2-0-333-5-3-3-5-3-5---|
 *** * * * * * * *** * * * * *   *** * * * * * * *** * * * * * *



1:12

1

-------------------------------------------------------------------|
-------------------------------------------------------------------|
-------------------------------------------------------------------|
---------2-------------------------------2-------------------------|
-222-3-2-0-3-2-0-333-5-3-3-5-3-5-222-3-2-0-3-2-0-333-5-3-3-5-3-5---|
-222-3-2---3-2-0-333-5-3-3-5-3-5-222-3-2---3-2-0-333-5-3-3-5-3-5---|
 *** * *   * * * ***   * *   *   *** * *   * * * ***   * *   *  
 

2 W/ IPS SET TO +1 OCTAVE EQUIVELENT TO WHATS ON 3RD
----------___________----------------------___________-------------|
----------)--------------------------------)-----------------------|
-9--------------------12-1012--9----------------------12-1012------|
-------------------------------------------------------------------|
-7--------------------10\8/10--7----------------------10\8/10------|
-------------------------------------------------------------------|



1

-------------------------------------------------------------------|
-------------------------------------------------------------------|
-------------------------------------------------------------------|
---------2-------------------------------2-------------------------|
-222-3-2-0-3-2-0-333-5-3-3-5-3-5-222-3-2-0-3-2-0-333-5-3-3-5-3-5---|
-222-3-2---3-2-0-333-5-3-3-5-3-5-222-3-2---3-2-0-333-5-3-3-5-3-5---|
 *** * *   * * * ***   * *   *   *** * *   * * * ***   * *   *  


2 W/ IPS SET TO +1 OCTAVE EQUIVELENT TO WHATS ON 3RD
----------___________----------------------___________-------------|
----------)--------------------------------)-----------------------|
-9--------------------12-1012--9--[16-17-16-19-17-16-14]-----------|
------------------------------------X--X--X--X--X--X--X------------|
-7--------------------10\8/10--7--[14/15\14-17\15\14\12]-----------|
----------------------------------GT 3 L FILL----------------------|






1:27



--------------------------------------------------------------------------------|
--------------------------------------------------------------------------------|
--------------------------------------------------------------------------------|
-4-------------4--------9--7-5-7--5-4-5-4-------------4--------9--7-5-7--5-4-5--|
-2-------2-333-2--------7--5-3-5--3-2-3-2-------2-333-2--------7--5-3-5--3-2-3--|
--------------------------------------------------------------------------------|
         * ***                                  * ***            



1:41

1
--------------------------------------------------------------------|
--------------------------------------------------------------------|
--------------------------------------------------------------------|
-5------7-----9-----4-------7-----------5------7-----9-----4--------|
-3------5-----7-----2-------5-----5-----3------5-----7-----2--------|
----------------------------------5---------------------------------|

2
-------------------------------------------------------------------------------|
-------------------------------------------------------------------------------|
12----14----16----11-------14-----7-----12----14----16---11--11-1211-7-9-6-9-7-|
-x-----x-----x----x---------x-----x------x-----x-----x----x---X--X-X-X-X-X-X-X-|
10----12----14----9--------12-----5-----10----12----14----9---9/10\9-5-7-4-7-5-|
-------------------------------------------------------------------------------|





1:55

-------------------------------------------------------------------|
-------------------------------------------------------------------|
-------------------------------------------------------------------|
---------2-------------------------------2-------------------------|
-222-3-2-0-3-2-0-333-5-3-3-5-3-5-222-3-2-0-3-2-0-333-5-3-3-5-3-5---|
-222-3-2---3-2-0-333-5-3-3-5-3-5-222-3-2---3-2-0-333-5-3-3-5-3-5---|
 *** * * * * * * *** * * * * *   *** * * * * * * *** * * * * * *

-------------------------------------------------------------------|
-------------------------------------------------------------------|
-------------------------------------------------------------------|
---------2-------------------------------2-------------------------|
-222-3-2-0-3-2-0-333-5-3-3-5-3-5-222-3-2-0-3-2-0-333-5-3-3-5-3-5---|
-222-3-2---3-2-0-333-5-3-3-5-3-5-222-3-2---3-2-0-333-5-3-3-5-3-5---|
 *** * * * * * * *** * * * * *   *** * * * * * * *** * * * * * *

1
------------------------------------------------------------------|
------------------------------------------------------------------|
------------------------------------------------------------------|
------------------------------------------------------------------|
-222-3-2-5-3-2-5-222-3-2-2-3-2-3-222-3-2-5-3-2-5-222-3-2-2-3-2-3--|
-222-3-2-5-3-2-5-222-3-2-2-3-2-3-222-3-2-5-3-2-5-222-3-2-2-3-2-3--|
 *** * * * * * * *** * * * * * * *** * * * * * * *** * * * * * *
2
----------___________----------------------___________-------------|
----------)---------(----------------------)---------(-------------|
-------------------------------------------------------------------|
-------------------------------------------------------------------|
-7-----------------------------[7]---------------------------------|
-------------------------------------------------------------------|



-------------------------------------------------------------------|
-------------------------------------------------------------------|
-------------------------------------------------------------------|
---------2-------------------------------2-------------------------|
-222-3-2-0-3-2-0-333-5-3-3-5-3-5-222-3-2-0-3-2-0-333-5-3-3-5-3-5---|
-222-3-2---3-2-0-333-5-3-3-5-3-5-222-3-2---3-2-0-333-5-3-3-5-3-5---|
 *** * * * * * * *** * * * * *   *** * * * * * * *** * * * * * *




1
-------------------------------------------------------------------|
-------------------------------------------------------------------|
-------------------------------------------------------------------|
---------2-------------------------------2-------------------------|
-222-3-2-0-3-2-0-333-5-3-3-5-3-5-222-3-2-0-3-2-0-333-5-3-3-5-3-5---|
-222-3-2---3-2-0-333-5-3-3-5-3-5-222-3-2---3-2-0-333-5-3-3-5-3-5---|
 *** * *   * * * ***   * *   *   *** * *   * * * ***   * *   *  


2 W/ IPS SET TO +1 OCTAVE EQUIVELENT TO WHATS ON 3RD
----------___________----------------------___________-------------|
----------)--------------------------------)-----------------------|
-9--------------------12-1012--9----------------------12-1012------|
-------------------------------------------------------------------|
-7--------------------10\8/10--7----------------------10\8/10------|
-------------------------------------------------------------------|



1
-------------------------------------------------------------------|
-------------------------------------------------------------------|
-------------------------------------------------------------------|
---------2-------------------------------2-------------------------|
-222-3-2-0-3-2-0-333-5-3-3-5-3-5-222-3-2-0-3-2-0-333-5-3-3-5-3-5---|
-222-3-2---3-2-0-333-5-3-3-5-3-5-222-3-2---3-2-0-333-5-3-3-5-3-5---|
 *** * *   * * * ***   * *   *   *** * *   * * * ***   * *   *  


2 W/ IPS SET TO +1 OCTAVE EQUIVELENT TO WHATS ON 3RD
----------___________----------------------___________-------------|
----------)--------------------------------)-----------------------|
-9--------------------12-1012--9--[16-17-16-19-17-16-14]-----------|
------------------------------------X--X--X--X--X--X--X------------|
-7--------------------10\8/10--7--[14/15\14-17\15\14\12]-----------|
----------------------------------GT 3 L FILL----------------------|






2:36


--------------------------------------------------------------------------------|
--------------------------------------------------------------------------------|
--------------------------------------------------------------------------------|
-4-------------4--------9--7-5-7--5-4-5-4-------------4--------9--7-5-7--5-4-5--|
-2-------2-333-2--------7--5-3-5--3-2-3-2-------2-333-2--------7--5-3-5--3-2-3--|
--------------------------------------------------------------------------------|
         * ***                                  * ***            


1
------------------------------------------------------------------------------|
------------------------------------------------------------------------------|
------------------------------------------------------------------------------|
-5------7-----9-----4-------7-----------5------7-----9-----4------------------|
-3------5-----7-----2-------5-----5-----3------5-----7-----2------------------|
----------------------------------5---------------------------4-5-4-0-2-0-5-4-|

2
-------------------------------------------------------------------------------|
-------------------------------------------------------------------------------|
12----14----16----11-------14-----7-----12----14----16---11--11-1211-7-9-6-9-7-|
-x-----x-----x----x---------x-----x------x-----x-----x----x---X--X-X-X-X-X-X-X-|
10----12----14----9--------12-----5-----10----12----14----9---9/10\9-5-7-4-7-5-|
-------------------------------------------------------------------------------|






3:05



----------------------------------------------------------------------------------------|
----------------------------------------------------------------------------------------|
-----^--------------_----^-------^--------------_----^------^---------------------------|
----3-2--^----_----/ \--0-2-----3-2--^----_----/ \--5-3----3-2--^-----------------------|
-2------3-2--/ \--0-2-3-----2-2-----3-2--/ \--0-2-3-----2------3-2-----3--0--2--6--5--1-|
-2----------0-2-3-----------2-2---------0-2-3-----------2----------/-\-3--0--2--6--5--1-|
 *                          * *                         *





-------------------------------------------------------------------|
-------------------------------------------------------------------|
-----------___-------------___-------------___-----___-----__------|
---___----/   \----___----/   \----___----/   \---/   \---/  \-----|
--/   \--0-2-3-5--/   \--0-2-3-5--/   \--0-2-3-5-6-5-3---5-3-------|
-0-2-3-5---------0-2-3-5---------0-2-3-5---------------6-----6-3---|

-------------------------------------------------------------------|
-------------------------------------------------------------------|
-----------___-------------___-------------___-----___-----__------|
---___----/   \----___----/   \----___----/   \---/   \---/  \-----|
--/   \--0-2-3-5--/   \--0-2-3-5--/   \--0-2-3-5-6-5-3---5-3-------|
-0-2-3-5---------0-2-3-5---------0-2-3-5---------------6-----6-3---|




--------------------------------------------------------------------|
----------------------------------------------------___-----___-----|
---------_----^----------_----^----------_----^----/   \---/   \----|
---_----/ \--3-5---_----/ \--3-5---_----/ \--3-5--5-3-----3---------|
--/ \--3-5-6------/ \--3-5-6------/ \--3-5-6----------6-5---6-5-3---|
-3-5-6-----------3-5-6-----------3-5-6------------------------------|


------------------------------------------------------------------|
----------------------------------------------------___-----__----|
---------_----^----------_----^----------_----^----/   \---/  \---|
---_----/ \--3-5---_----/ \--3-5---_----/ \--3-5--6-5-3-5-3    ---|
--/ \--3-5-6------/ \--3-5-6------/ \--3-5-6----------------6-5-3-|
-3-5-6-----------3-5-6-----------3-5-6----------------------------|





3:28


1
-------------------------------------------------------------------------------------------|
-------------------------------------------------------------------------------------------|
-------------------------------------------------------------------------------------------|
-------------------------------------------------------------------------------------------|
-------------------------------------------------------------------------------------------|
-666--------666--------666--------666-555-666--------666--------666--------101010-555-666--|
 **         ***        ***        *** *** ***        ***        ***         * * * *** ***


2 W IPS SET TO +1 OCTAVE EQUIVELENT TO WHATS ON 3RD
-------------------------------------------------------------------------------------------|
-///-----------------------------///-///-///--------------------------------///---///-///--|
-8-------------------------------10---7---8----------------------------------12----7---8---|
-------------------------------------------------------------------------------------------|
-6--------------------------------8---5---6----------------------------------10----5---6---|
-------------------------------------------------------------------------------------------|




1
-------------------------------------------------------------------------------------------|
-------------------------------------------------------------------------------------------|
-------------------------------------------------------------------------------------------|
-------------------------------------------------------------------------------------------|
-------------------------------------------------------------------------------------------|
-666--------666--------666--------666-555-666--------666--------666--------101010-555-666--|
 **         ***        ***        *** *** ***        ***        ***         * * * *** ***


2 W IPS SET TO +1 OCTAVE EQUIVELENT TO WHATS ON 3RD
-------------------------------------------------------------------------------------------|
-///-----------------------------///-///-///--------------------------------///---///-///--|
-8-------------------------------10---7---8----------------------------------12----7---8---|
-------------------------------------------------------------------------------------------|
-6--------------------------------8---5---6----------------------------------10----5---6---|
-------------------------------------------------------------------------------------------|




1
-----------------------------------------------------------------------|
-----------------------------------------------------------------------|
-----------------------------------------------------------------13-9--|
-----------------------------------------------------------------11-7--|
-----------------------------------------------------------------11-7--|
-666--------666--------666--------666-555-666--------666-------/-11-7--|
 **         ***        ***        *** *** ***        ***     


2 W IPS SET TO +1 OCTAVE EQUIVELENT TO WHATS ON 3RD
-----------------------------------------------------------------------|
-///-----------------------------///-///-///---------------------------|
-8-------------------------------10---7---8----------------------------|
-----------------------------------------------------------------11-7--|
-6--------------------------------8---5---6----------------------11-7--|
--------------------------------------------------------------/--11-7--|





3:56


1
--------------------------------------------------------------|
--------------------------------------------------------------|
--------------------------------------------------------------|
--------------------------------------------------------------|
--------------------------------------------------------------|
-3~-0--1--6-5-0-3~-0--1--6-5-0-3~-0--1--6-5-0-3~-0--1--6-5-0--|

2
---------------------------------------------------------------|
---------------------------------------------------------------|
---------------------------------------------------------------|
---------------------------------------------------------------|
-3--0--1--6-5-0-3--0--1--6-5-0-3--0--1--6-5-0-3--0--1--6-5-0---|
-3--0--1--6-5-0-3--0--1--6-5-0-3--0--1--6-5-0-3--0--1--6-5-0---|


1
---------------------------------------------------------------|
---------------------------------------------------------------|
---------------------------------------------------------------|
---------------------------------------------------------------|
-3--0--1--6-5-0-3--0--1--6-5-0-3--0--1--6-5-0-2--3--5--6-3-5---|
-3--0--1--6-5-0-3--0--1--6-5-0-3--0--1--6-5-0-2--3--5--6-3-5---|

2
--------------------------------------------------------------|
--------------------------------------------------------------|
-5-----3--8-7---5-----3--8-7---5-----3--8-7-------------------|
-x-----x--x-x---x-----x--x-x---x-----x--x-x-------------------|
-3--0--1--6-5-0-3--0--1--6-5-0-3--0--1--6-5-0-2--3--5--6-3-5--|
----0---------0----0---------0----0---------0-2--3--5--6-3-5--|






--------------------------------------------------------------------------------|
--------------------------------------------------------------------------------|
--------------------------------------------------------------------------------|
-4-------------4--------9--7-5-7--5-4-5-4-------------4--------9--7-5-7--5-4-5--|
-2-------2-333-2--------7--5-3-5--3-2-3-2-------2-333-2--------7--5-3-5--3-2-3--|
--------------------------------------------------------------------------------|
         * ***                                  * ***            




1
------------------------------------------------------------------------------|
------------------------------------------------------------------------------|
------------------------------------------------------------------------------|
-5------7-----9-----4-------7-----------5------7-----9-----4------------------|
-3------5-----7-----2-------5-----5-----3------5-----7-----2------------------|
----------------------------------5---------------------------4-5-4-0-2-0-5-4-|

2
-------------------------------------------------------------------------------|
-------------------------------------------------------------------------------|
12----14----16----11-------14-----7-----12----14----16---11--11-1211-7-9-6-9-7-|
-x-----x-----x----x---------x-----x------x-----x-----x----x---X--X-X-X-X-X-X-X-|
10----12----14----9--------12-----5-----10----12----14----9---9/10\9-5-7-4-7-5-|
-------------------------------------------------------------------------------|



---------------------------------------------------|
---------------------------------------------------|
-----^--------------_----^-------^-----------------|
----3-2--^----_----/ \--0-2-----3-2--^----_--------|
-2------3-2--/ \--0-2-3-----2-2-----3-2--/ \-------|
-2----------0-2-3-----------2-2---------0-2-3--/-\-|
 *                          * *                      






4:43


-------------------------------------------------------------------|
-------------------------------------------------------------------|
-------------------------------------------------------------------|
---------2-------------------------------2-------------------------|
-222-3-2-0-3-2-0-333-5-3-3-5-3-5-222-3-2-0-3-2-0-333-5-3-3-5-3-5---|
-222-3-2---3-2-0-333-5-3-3-5-3-5-222-3-2---3-2-0-333-5-3-3-5-3-5---|
 *** * *   * * * ***   * *   *   *** * *   * * * ***   * *   *  


-------------------------------------------------------------------|
-------------------------------------------------------------------|
-------------------------------------------------------------------|
---------2-------------------------------2-------------------------|
-222-3-2-0-3-2-0-333-5-3-3-5-3-5-222-3-2-0-3-2-0-333-5-3-3-5-3-5---|
-222-3-2---3-2-0-333-5-3-3-5-3-5-222-3-2---3-2-0-333-5-3-3-5-3-5---|
 *** * *   * * * ***   * *   *   *** * *   * * * ***   * *   *  





4:56 w bend riffs

-------------------------------------------------------------------|
-------------------------------------------------------------------|
-------------------------------------------------------------------|
---------2-------------------------------2-------------------------|
-222-3-2-0-3-2-0-333-5-3-3-5-3-5-222-3-2-0-3-2-0-333-5-3-3-5-3-5---|
-222-3-2---3-2-0-333-5-3-3-5-3-5-222-3-2---3-2-0-333-5-3-3-5-3-5---|
 *** * *   * * * ***   * *   *   *** * *   * * * ***   * *   *  




-------------------------------------------------------------------|
-------------------------------------------------------------------|
-------------------------------------------------------------------|
---------2-------------------------------2-------------------------|
-222-3-2-0-3-2-0-333-5-3-3-5-3-5-222-3-2-0-3-2-0-333-5-3-3-5-3-5---|
-222-3-2---3-2-0-333-5-3-3-5-3-5-222-3-2---3-2-0-333-5-3-3-5-3-5---|
 *** * *   * * * ***   * *   *   *** * *   * * * ***   * *   *  




-------------------------------------------------------------------|
-------------------------------------------------------------------|
-------------------------------------------------------------------|
---------2-------------------------------2-------------------------|
-222-3-2-0-3-2-0-333-5-3-3-5-3-5-222-3-2-0-3-2-0-333-5-3-3-5-3-5---|
-222-3-2---3-2-0-333-5-3-3-5-3-5-222-3-2---3-2-0-333-5-3-3-5-3-5---|
 *** * *   * * * ***   * *   *   *** * *   * * * ***   * *   *    

Added On October 15th, 2014

SHARE

Comments

blog comments powered by Disqus

ADVERTISEMENT