Slipknot Tabs

Psychosocial

5 versions

TAB

            :this is one of slipknots new songs,the 2nd single off of there new album all hope is
which will be released the 26th,so make sure all you guys go out and grab it the
song is psychosocial have fun,i have also tabed the solo in this one,once again listen
song for struming,and pauses which are often used in this song.

Tuning;Drop A;-A-E-A-D-F#-B

(from high-low)


XXXXXXXXXXXXXXX
Intro
XXXXXXXXXXXXXXX

                                                       (pause here breifley both times)
|-----------------------------------------------------|----------------------------|
|-----------------------------------------------------|----------------------------|
|-----------------------------------------------------|----------------------------|
|-------------6*---------------------------6*---------|-------------6*-------------|
|-----------------------------------------------------|----------------------------|
|-0--0--0-0-0-----0--3h5-0-0-0-0-0-0-0-0-0-----0--3h5-|-0--0--0-0-0-----0--3h5-0---|---\
                                                                                      and  X2
----------------------------------|       ---------------------------------------------/
----------------------------------|
----------------------------------|
----------------------------------|
----------------------------------|
0-5-5-5-5-6-6-6-6-8-8-8-8-7-7-7-7-|

|--------------------------|
|--------------------------|
|--------------------------|
|--------------------------|
|--------------------------|
|-5555555566668888-6v--5-6-|


XXXXXXXXXXXXXXXXX
Verse riff
XXXXXXXXXXXXXXXXX


|-----------------|--------------------|
|-----------------|--------------------|
|-----------------|-x4-----------------|
|-----------------|--------------------|
|-6-0-0-5-0-0-5h6-|----6-5-3-0-3-5-3-2-|
|-6-0-0-5-0-0-5h6-|----6-5-3-0-3-5-3-2-|


|-----------------|--------------------|
|-----------------|--------------------|
|-----------------|-x4-----------------|
|-----------------|--------------------|
|-6-0-0-5-0-0-5h6-|----6-5-3-0-3-5-3-2-|
|-6-0-0-5-0-0-5h6-|----6-5-3-0-3-5-3-2-|(pause here breifley)

|-----------------|--------------------|
|-----------------|--------------------|
|-----------------|-x4-----------------|
|-----------------|--------------------|
|-6-0-0-5-0-0-5h6-|----6-5-3-0-3-5-3-2-|
|-6-0-0-5-0-0-5h6-|----6-5-3-0-3-5-3-2-|


|-----------------|--------------------|
|-----------------|--------------------|
|-----------------|-x4-----------------|
|-----------------|--------------------|
|-6-0-0-5-0-0-5h6-|----6-5-3-0-3-5-3-2-|
|-6-0-0-5-0-0-5h6-|----6-5-3-0-3-5-3-2-|

XXXXXXXXXXXXXXXXXXX
Verse break riff
XXXXXXXXXXXXXXXXXXX

|-----------------|
|-----------------|
|-----------------|
|-----------------|
|-----6p5-0-0-5h6-|
|-----6p5-0-0-5h6-|


XXXXXXXXXXXXXXXXX
Verse riff
XXXXXXXXXXXXXXXXX


|-----------------|--------------------|
|-----------------|--------------------|
|-----------------|-x4-----------------|
|-----------------|--------------------|
|-6-0-0-5-0-0-5h6-|----6-5-3-0-3-5-3-2-|
|-6-0-0-5-0-0-5h6-|----6-5-3-0-3-5-3-2-|

|-----------------|--------------------|
|-----------------|--------------------|
|-----------------|-x4-----------------|
|-----------------|--------------------|
|-6-0-0-5-0-0-5h6-|----6-5-3-0-3-5-3-2-|
|-6-0-0-5-0-0-5h6-|----6-5-3-0-3-5-3-2-|


XXXXXXXXXXXXXX
Chorus riff
XXXXXXXXXXXXXX


|----------------------------------------------------------|
|----------------------------------------------------------|
|----------------------------------------------------------|
|----------------------3--3-3----------------5--5-5-8--8-8-|
|-6-6-6-6-6-6-6-1--1-1-1--1-1-5--5-5-5-5-5-5-3--3-3-6--6-6-|
|-6-6-6-6-6-6-6-1--1-1--------5--5-5-5-5-5-5---------------|


|----------------------------------------------------------|
|----------------------------------------------------------|
|----------------------------------------------------------|
|-----------------------3--3-3-----------------------------|
|-6--6-6-6-6-6-6-1--1-1-1--1-1-5--5-5-5-5-5-5-5-5----0-12\-|
|-6--6-6-6-6-6-6-1--1-1--------5--5-5-5-5-5-5-5-5----0-12\-|


XXXXXXXXXXXXXXXXX
Verse riff
XXXXXXXXXXXXXXXXX


|-----------------|--------------------|
|-----------------|--------------------|
|-----------------|-x4-----------------|
|-----------------|--------------------|
|-6-0-0-5-0-0-5h6-|----6-5-3-0-3-5-3-2-|
|-6-0-0-5-0-0-5h6-|----6-5-3-0-3-5-3-2-|

|-----------------|--------------------|
|-----------------|--------------------|
|-----------------|-x4-----------------|
|-----------------|--------------------|
|-6-0-0-5-0-0-5h6-|----6-5-3-0-3-5-3-2-|
|-6-0-0-5-0-0-5h6-|----6-5-3-0-3-5-3-2-|

XXXXXXXXXXXXXXXXXXX
Verse break riff
XXXXXXXXXXXXXXXXXXX

|-----------------|
|-----------------|
|-----------------|
|-----------------|
|-----6p5-0-0-5h6-|
|-----6p5-0-0-5h6-|


XXXXXXXXXXXXXXXXX
Verse riff
XXXXXXXXXXXXXXXXX


|-----------------|--------------------|
|-----------------|--------------------|
|-----------------|-x4-----------------|
|-----------------|--------------------|
|-6-0-0-5-0-0-5h6-|----6-5-3-0-3-5-3-2-|
|-6-0-0-5-0-0-5h6-|----6-5-3-0-3-5-3-2-|


|-----------------|--------------------|
|-----------------|--------------------|
|-----------------|-x4-----------------|
|-----------------|--------------------|
|-6-0-0-5-0-0-5h6-|----6-5-3-0-3-5-3-2-|
|-6-0-0-5-0-0-5h6-|----6-5-3-0-3-5-3-2-|

|-----------------|--------------------|
|-----------------|--------------------|
|-----------------|-x4-----------------|
|-----------------|--------------------|
|-6-0-0-5-0-0-5h6-|----6-5-3-0-3-5-3-2-|
|-6-0-0-5-0-0-5h6-|----6-5-3-0-3-5-3-2-|


|-----------------|--------------------|
|-----------------|--------------------|
|-----------------|-x4-----------------|
|-----------------|--------------------|
|-6-0-0-5-0-0-5h6-|----6-5-3-0-3-5-3-2-|
|-6-0-0-5-0-0-5h6-|----6-5-3-0-3-5-3-2-|


XXXXXXXXXXXXXX
Chorus riff
XXXXXXXXXXXXXX


|----------------------------------------------------------|
|----------------------------------------------------------|
|----------------------------------------------------------|
|----------------------3--3-3----------------5--5-5-8--8-8-|
|-6-6-6-6-6-6-6-1--1-1-1--1-1-5--5-5-5-5-5-5-3--3-3-6--6-6-|
|-6-6-6-6-6-6-6-1--1-1--------5--5-5-5-5-5-5---------------|


|----------------------------------------------------------|
|----------------------------------------------------------|
|----------------------------------------------------------|
|-----------------------3--3-3-----------------------------|
|-6--6-6-6-6-6-6-1--1-1-1--1-1-5--5-5-5-5-5-5-5-5----0-12\-|
|-6--6-6-6-6-6-6-1--1-1--------5--5-5-5-5-5-5-5-5----0-12\-|


XXXXXXXXXXXXXX
Solo  (Mick Thompson)
XXXXXXXXXXXXXX

(hammer on's)

|---------------------------------------------------------------------|
|---------------------------------------------------------------------|
|----------------------------------7-8-10--------7-8-20---------------|
|--------5-7-8-8-7-5--------7-8-10--------7-8-10----------------------|
|--5-7-8--------------8-7-5-------------------------------------------|
|---------------------------------------------------------------------|


|-----------------------------------------------------------------------|
|-----------------------------------------------------------------------|
|----------8-10-12-12-10-8------------------10-12-13----------10-12-13--|
|--8-10-12-----------------12-10-8-10-12-13----------10-12-13-----------|
|-----------------------------------------------------------------------|
|-----------------------------------------------------------------------|


|------------------------------------------------------------------------|
|------------------------------------------------------------------------|
|-----------12-13-15-15-13-12----------------13-14-17----------13-15-17--|
|--12-13-15-------------------15-13-12-15-17----------13-15-17-----------|
|------------------------------------------------------------------------|
|------------------------------------------------------------------------|


|------------------------------------------------------------------------------|
|------------------------------------------------------------------------------|
|-----------15-17-19-19-17-15----------------------17-19-20----------17-19-20--|

|--15-17-19-------------------19-17-15-19-17-19-20----------17-19-20-----------|
|------------------------------------------------------------------------------|
|------------------------------------------------------------------------------|

(slow down here,)

|----------------------------------------|
|----------------------------------------|
|---------------------20-----------------|
|--19-19-h20-19-19-20----20-19-17-19-20--|
|----------------------------------------|
|----------------------------------------|


|--------------------------------------|
|--------------------------------------|
|--19----------------------------------|
|-----17-18-17-------------------------|
|-------------17-18-17-18-17-15-13-15--|
|--------------------------------------|

(james kicks in as soon as mick finishes,then transition is noticible listen to song)

XXXXXXXXXXXXXx
Solo 2 (James Root)
XXXXXXXXXXXXXX

|------------------------------------------------------------------------|
|------------------------------------------------------------------------|
|--22-20-19-20-19-20-15-17-20-19-20-19-20-19-17-19-20-19-19-17-19-22-19--|
|------------------------------------------------------------------------|
|------------------------------------------------------------------------|
|------------------------------------------------------------------------|


|-------------------------------------------------------------------|
|-------------------------------------------------------------------|
|-------------------------------------------------------------------|
|------------------------------------------9-10-12---------9-10-12--|
|----------8-10-12-12-10-8---------8-10-12---------8-10-12----------|
|--8-10-12-----------------12-10-8----------------------------------|


|-------------------------------------------------------------------|
|-------------------------------------------------------------------|
|-------------------------------------------------------------------|
|--12-10-9---------12-10-9------------------------------------------|
|----------12-10-8---------12-10-8---------8-10-12-12-10-8----------|
|----------------------------------8-10-12-----------------12-10-5--|


|------------------------------------------------------------------|
|--20-20-----------------------------------------------------------|
|--------20-20-19-20-19-17-19--------------------------------------|
|-----------------------------17-18-17-15-17-----------------------|
|--------------------------------------------18-18-17-18-17-15-17--|
|------------------------------------------------------------------|


XXXXXXXXXXXXXXXXXXXXXXXX
Breakdown riff 1 :NOTE: listen to the song for the strumming
XXXXXXXXXXXXXXXXXXXXXXXX


|-------------------------------------------------|
|-------------------------------------------------|
|-------------------------------------------------|
|-------------------------------------------------|
|-------------------------------------------------|
|-0-0-----0-0-0---0-0-0---0-0-0-0---0-0-0-0-0---0-|


|-------------------------------------------------|
|-------------------------------------------------|
|-------------------------------------------------|
|-------------------------------------------------|
|-------------------------------------------------|
|-0-0-----0-0-0---0-0-0---0-0-0-0---0-0-0-0-0---0-|


|-------------------------------------------------|
|-------------------------------------------------|
|-------------------------------------------------|
|-------------------------------------------------|
|-------------------------------------------------|
|-0-0-----0-0-0---0-0-0---0-0-0-0---0-0-0-0-0---0-|


XXXXXXXXXXXXXXXXX
Breakdown riff 2x
XXXXXXXXXXXXXXXXX


|--------------------------------------------|
|--------------------------------------------|
|--------------------------------------------|
|--------------------------------------------|
|------------------------------------0---12\-|
|-0-0-----0-0-0---0-0-0---0-0-0-0----0---12\-|


XXXXXXXXXXXXXXXXX
Verse riff
XXXXXXXXXXXXXXXXX


|-----------------|---------------------------------------------------------------|
|-----------------|---------------------------------------------------------------|
|-----------------|-x4------------------------------------------------------------|
|-----------------|--------------------| |-6-0-0-5-0-0-5h6-|----6-5-3-0-3-5-3-2---|
|-6-0-0-5-0-0-5h6-|----6-5-3-0-3-5-3-2--------------------------------------------|


|-----------------|---------------------------------------------------------------|
|-----------------|---------------------------------------------------------------|
|-----------------|-x4------------------------------------------------------------|
|-----------------|---------------------------------------------------------------|
|-6-0-0-5-0-0-5h6-|----6-5-3-0-3-5-3-2-| |-6-0-0-5-0-0-5h6-|----6-5-3-0-3-5-3-2---|


XXXXXXXXXXXXX
Last chorus
XXXXXXXXXXXXX


|----------------------------------------------------------|
|----------------------------------------------------------|
|----------------------------------------------------------|
|----------------------3--3-3----------------5--5-5-8--8-8-|
|-6-6-6-6-6-6-6-1--1-1-1--1-1-5--5-5-5-5-5-5-3--3-3-6--6-6-|
|-6-6-6-6-6-6-6-1--1-1--------5--5-5-5-5-5-5---------------|

|------------------------------------------------------------|
|------------------------------------------------------------|
|------------------------------------------------------------|
|------------------------3--3-3----------------5--5-5-8--8-8-|
|-6---6-6-6-6-6-6-1--1-1-1--1-1-5--5-5-5-5-5-5-3--3-3-6--6-6-|
|-6---6-6-6-6-6-6-1--1-1--------5--5-5-5-5-5-5---------------|

|------------------------------------------------------------|
|------------------------------------------------------------|
|------------------------------------------------------------|
|------------------------3--3-3----------------5--5-5-8--8-8-|
|-6---6-6-6-6-6-6-1--1-1-1--1-1-5--5-5-5-5-5-5-3--3-3-6--6-6-|
|-6---6-6-6-6-6-6-1--1-1--------5--5-5-5-5-5-5---------------|

|-----------------------------------------------------------------|
|-----------------------------------------------------------------|
|-----------------------------------------------------------------|
|-----------------------3--3-3------------------------------------|
|-6--6-6-6-6-6-6-1--1-1-1--1-1-5--5-5-5-5-5-5-5-5-5-5-5-5-5-5-5-5-|
|-6--6-6-6-6-6-6-1--1-1--------5--5-5-5-5-5-5-5-5-5-5-5-5-5-5-5-5-|


XXXXXXXXXXXXXX
Outro riff 1 :Not:listen to the song for the rhythm
XXXXXXXXXXXXXX


|--------------------------------------------------|
|--------------------------------------------------|
|--------------------------------------------------|
|--------------------------------------------------|
|-0-0---0-0----0-0-0---0-0----0-0-0-0---0-0-0-3--2-|
|-0-0---0-0----0-0-0---0-0----0-0-0-0---0-0-0-3--2-|


|--------------------------------------------------|
|--------------------------------------------------|
|--------------------------------------------------|
|--------------------------------------------------|
|-0-0---0-0----0-0-0---0-0----0-0-0-0---0-0-0-3--2-|
|-0-0---0-0----0-0-0---0-0----0-0-0-0---0-0-0-3--2-|


|--------------------------------------------------|
|--------------------------------------------------|
|--------------------------------------------------|
|--------------------------------------------------|
|-0-0---0-0----0-0-0---0-0----0-0-0-0---0-0-0-3--2-|
|-0-0---0-0----0-0-0---0-0----0-0-0-0---0-0-0-3--2-|


XXXXXXXXXXXXXX
Outro riff 2 :Note:listen to the song for the strumming
XXXXXXXXXXXXXX


|--------------------------------------------------|
|--------------------------------------------------|
|--------------------------------------------------|
|--------------------------------------------------|
|-0-0---0-0----0-0-0---0-0----0-0-0-0--------------|
|-0-0---0-0----0-0-0---0-0----0-0-0-0--------------|

--The end,have fun playing this awesome song,please rate


i just thought id throw the lyrics in for the hell of it

I did my time, and I want out!
So abusive fate!
It doesn't cut, this soul is not so vibrant.
The reckoning, the sickening.
Back at your subversion.
Pseudo-sacred sick perversion.
Go to your classes, go dig your graves!
Then fill your mouth with all the money you will save.
Sinking in, getting smaller again.
undone! It has begun, I'm not the only one!

And the reign will kill us all.
Throw ourselves against the wall.
But no-one else can see.
The preservation of the martyr in me.

Psychosocial, Psychosocial, Psychosocial.
Psychosocial, Psychosocial, Psychosocial.

There are cracks on the road we lay.
From where the devil fell, the secret have gone mad.
This is nothing new, but would we kill it all?
Fate was all we had!
Who needs another mess, we could start over.
Just look me in the eyes and say I'm wrong!
Now there's only emptiness, burn elicit self threat.
I think we're done, I'm not the only one!

And the reign will kill us all.
Throw ourselves against the wall.
But no-one else can see.
The preservation of the martyr in me.

Psychosocial, Psychosocial, Psychosocial.
Psychosocial, Psychosocial, Psychosocial.

The limits of the dead!
The limits of the dead!
The limits of the dead!

Fate! Cannot catch this lie, (Psychosocial)
I've tried to tell you thrice! (Psychosocial)
Your hurtful lies are giving out. (Psychosocial)
Can't stop the killing, I can't help it. (Psychosocial)
If it's something secret. (Psychosocial)
Is this what you want? (Psychosocial)
I'm not the only one!

And the reign will kill us all.
Throw ourselves against the wall.
But no-one else can see.
The preservation of the martyr in me. X2

The limits of the dead!
The limits of the dead!
The limits of the dead!    

Added On December 16th, 2013

SHARE

Comments

blog comments powered by Disqus

VERSIONS

ADVERTISEMENT