Slipknot Tabs

Psychosocial Intro

1 versions

TAB

            Intro - guitar 1
B |-----------------------------------------------------|
F#|-----------------------------------------------------|
D |-----------------------------------------------------|
A |-------------6*---------------------------6*---------|
E |-----------------------------------------------------|
A |-0--0--0-0-0-----0--3h5-0-0-0-0-0-0-0-0-0-----0--3h5-|
pm  .  .  . . .     .      . . . . . . . . .     .

B |---------------------------------------------------------|
F#|---------------------------------------------------------|
D |---------------------------------------------------------| X2
A |----------6*---------------------------------------------|
E |---------------------------------------------------------|
A |-0--0-0-0-----0--3h5-0-0-5-5-5-5-6-6-6-6-8-8-8-8-7-7-7-7-|
pm  .  . . .     .      . . . . . . . . . . . . . . . . . .

B |-----------------------------------------------------------------|
F#|-----------------------------------------------------------------|
D |-----------------------------------------------------------------|
A |-----------------------------------------------------------------|
E |-----------------------------------------------------------------|
A |-5-5-5-5-6-6-6-6-8-8-8-8-7-7-7-7-5-5-5-5-6-6-6-6-8-8-8-8-7-7-7-7-|
pm  . . . . . . . . . . . . . . . . . . . . . . . . . . . . . . . .

B |--------------------------|
F#|--------------------------|
D |--------------------------|
A |--------------------------|
E |--------------------------|
A |-5555555566668888-6v--5-6-|

Intro - guitar 2
B |------------------------------------------------------|
F#|------------------------------------------------------|
D |------------------------------------------------------|
A |------------------------------------------------------|
E |-0----------------------------------------------------|
A |-0--------------------------------------------0--3h5--|
pm  .                                            .

B |---------------------------------------------------------|
F#|---------------------------------------------------------|
D |---------------------------------------------------------| X2
A |----------6*---------------------------------------------|
E |-------------------------6-6-6-6-7-7-7-7-9-9-9-9-8-8-8-8-|
A |-0--0-0-0-----0--3h5-0-0---------------------------------|
pm  .  . . .     .      . . . . . . . . . . . . . . . . . .

B |-----------------------------------------------------------------|
F#|-----------------------------------------------------------------|
D |-----------------------------------------------------------------|
A |-----------------------------------------------------------------|
E |-6-6-6-6-7-7-7-7-9-9-9-9-8-8-8-8-6-6-6-6-7-7-7-7-9-9-9-9-8-8-8-8-|
A |-----------------------------------------------------------------|
pm  . . . . . . . . . . . . . . . . . . . . . . . . . . . . . . . .

B |--------------------------|
F#|--------------------------|
D |--------------------------|
A |--------------------------|
E |-66666666777799998888-12\-|
A |----------------------12\-|    

Added On December 16th, 2013

SHARE

Comments

blog comments powered by Disqus

ADVERTISEMENT