Slipknot Tabs

Sarcastrophe

1 versions

TAB

            SLIPKNOT

SARCASTROPHE

A-E-A-D-F#-B


TABBED BY andherembrace





3:10


     SEMI PM'D THROUGHT
--------------------------------------------------------|
--------15-----15----15-----------10-----10-----10------|
--------------------------------------------------------|
----12-----12-----12----12-----7------7------7------7---|
--------------------------------------------------------|
-0--------------------------0---------------------------|


--------------------------------------------------------|
--------8------8-----8-------------3-----3-------3------|
--------------------------------------------------------|
----5------5------5-----5------0------0------0-------0--|
--------------------------------------------------------|
-0-------------------------0----------------------------|


--------------------------------------------------------|
--------15-----15----15-----------10-----10-----10------|
--------------------------------------------------------|
----12-----12-----12----12-----7------7------7------7---|
--------------------------------------------------------|
-0--------------------------0---------------------------|


------------------------------------------------------------------------------|
--------8------8-----8-------------3-----3-------3-------3-----3-------3------|
------------------------------------------------------------------------------|
----5------5------5-----5------0------0------0-------0------0------0-------0--|
------------------------------------------------------------------------------|
-0-------------------------0--------------------------------------------------|




3:31

W/HARMONY SET TO +1 OCTAVE
----------------------------------------------------------------------------|
----------------3------3------3---------------------------------------------|
-----------0------0------0------0--------------0---------2------2-----------|
---------5---5------5------5------5----------5---5---------0------0-----0---|
-----5/6---------------------------------5/6----------3------3------3-3-----|
-0-----------------------------------0--------------3-----------------------|



----------------------------------------------------------------------------|
----------------3------3------3---------------------------------------------|
-----------0------0------0------0--------------0---------2------2-----------|
---------5---5------5------5------5----------5---5---------0------0-----0---|
-----5/6---------------------------------5/6----------3------3------3-3-----|
-0-----------------------------------0--------------3-----------------------|





3:50

----------------------------------------------------------------------------|
----------------------------------------------------------------------------|
----------------------------------------------------------------------------|
----------------------------------------------------------------------------|
--------12-12-------------10-10--------------12-12-------------10-10--------|
-\-0----12-12~---/-\-0----10-10~---/--\-0----12-12~---/-\-0----10-10~-------|







4:11

L
----------------------------------------------------------------------------|
----------------------------------------------------------------------------|
----------------------------------------------------------------------------|
----------------------------------------------------------------------------|
-0----------------------0--1--0-------0-----------------------1--0------8---|
-0----------------------0--1--0-------0-----------------------1--0------8---|
   |                            |       |                          |
R
--------------------------------------------------------------------------|
--------------------------------------------------------------------------|
----------___---------------------------------___-------------------------|
---------/   \----___------------------------/   \----___-------------8---|
--------5-6-5-6--/   \------------1---------5-6-5-6--/   \------------8---|
-0--5-6---------5-6-5-6-0--1-0--0-1--0--5-6---------5-6-5-6-0--1-0--0-8---|
                                *                                   *


L
----------------------------------------------------------------------------|
----------------------------------------------------------------------------|
----------------------------------------------------------------------------|
--------------------------------------------------------------------^-------|
-0----------------------0----------1--0----------------------------1-0------|
-0----------------------0----------1--0------------/-\-----0-0-1-3-----1-3--|
   |                      |             |                  * *    
R
----------------------------------------------------------------------------|
----------------------------------------------------------------------------|
----------___---------------------------------___---------------------------|
---------/   \----___------------------------/   \----___------------^------|
--------5-6-5-6--/   \------------1---------5-6-5-6--/   \----------1-0-----|
-0--5-6---------5-6-5-6-0--1-0--0-1--0--5-6---------5-6-5-6-0-0-1-3-----1-3-|
                                *                                    







4:20

--------------------------------------------------------------------------|
--------------------------------------------------------------------------|
----------___---------------------------------___-------------------------|
---------/   \----___------------------------/   \----___-------------8---|
-----^--5-6-5-6--/   \------------1------^--5-6-5-6--/   \------------8---|
-0--5-6---------5-6-5-6-0--1-0--0-1--0--5-6---------5-6-5-6-0--1-0--0-8---|
                                *                                   *

----------------------------------------------------------------------------|
----------------------------------------------------------------------------|
----------___---------------------------------___---------------------------|
---------/   \----___------------------------/   \----___------------^------|
-----^--5-6-5-6--/   \------------1------^--5-6-5-6--/   \----------1-0-----|
-0--5-6---------5-6-5-6-0--1-0--0-1--0--5-6---------5-6-5-6-0-0-1-3-----1-3-|
                                *                                    




4:29
----------------------------------------------------------|
----------------------------------------------------------|
----------------------------------------------------------|
------------------------------------------------------8---|
---------^----------------1----------^----------------8---|
-0--0-0-1-0-0-1-0--1-0--0-1--0--0-0-1-0-0-1-0--1-0--0-8---|
    * *                 *       * *                 *


------------------------------------------------------------|
------------------------------------------------------------|
------------------------------------------------------------|
-----------------------------------------------------^------|
---------^----------------1----------^--------------1-0-----|
-0--0-0-1-0-0-1-0--1-0--0-1--0--0-0-1-0-0-1-0-0-1-3-----1-3-|
    * *                 *       * *          


----------------------------------------------------------|
----------------------------------------------------------|
----------------------------------------------------------|
------------------------------------------------------8---|
---------^----------------1----------^----------------8---|
-0--0-0-1-0-0-1-0--1-0--0-1--0--0-0-1-0-0-1-0--1-0--0-8---|
    * *                 *       * *                 *


------------------------------------------------------------|
------------------------------------------------------------|
------------------------------------------------------------|
-----------------------------------------------------^------|
---------^----------------1----------^--------------1-0-----|
-0--0-0-1-0-0-1-0--1-0--0-1--0--0-0-1-0-0-1-0-0-1-3-----1-3-|
    * *                 *       * *          




4:48


L
------------------------------------------------------------------|
------------------_______________---------------------------------|
------------------)||||||||||||||(--------------------------------|
-4444444444444444444444444444444444444444444444447777777777777777-|
------------------------------------------------------------------|
------------------------------------------------------------------|

R
------------------------------------------------------------------|
------------------------------------------------------------------|
------------------________________--------------------------------|
------------------)||||||||||||||(--------------------------------|
-5555555555555555555555555555555555555555555555558888888888888888-|
------------------------------------------------------------------|



L
-----------------------------------------------------------------------------------|
------------------_______________--------------------------------------------------|
------------------)||||||||||||||(-------------------------------------------------|
-444444444444444444444444444444444444444444444444----------------------------------|
-------------------------------------------------12121212121212121212121212121212--|
-----------------------------------------------------------------------------------|

R
----------------------------------------------------------------------------------|
----------------------------------------------------------------------------------|
------------------________________------------------------------------------------|
------------------)||||||||||||||(------------------------------------------------|
-55555555555555555555555555555555555555555555555512121212121212121212121212121212-|
----------------------------------------------------------------------------------|






4:58

--------------------------------------------------|
--------------------------------------------------|
--------------------------------------------------|
--------------------------------------------------|
--------------------------------------------------|
--6--1---0-1-1-0-4-4-0-1--6--1---0-1-1-0-1-1-0-1--|

HARMONY  EQUIVELENT
-----------------------------------------------------------|
-----------------------------------------------------------|
-----------------------------------------------------------|
-10-6---------------------10-6--12-13-13-12-13-13-12-13-13-|
-----------------------------------------------------------|
-------0-1-1-0-4-4-0-1-------------------------------------|


--------------------------------------------------|
--------------------------------------------------|
--------------------------------------------------|
--------------------------------------------------|
--------------------------------------------------|
--6--1---0-1-1-0-4-4-0-1--6--1---0-6-6-0-6-6-0-6--|


HARMONY  EQUIVELENT
---------------------------------------------------|
---------------------------------------------------|
---------------------------------------------------|
-10-6---------------------10-6---------------------|
---------------------------------------------------|
-------0-1-1-0-4-4-0-1----------0-6-6-0-6-6-0-6----|







5:07

--------------------------------------------------------------------------|
--------------------------------------------------------------------------|
----------___---------------------------------___-------------------------|
---------/   \----___------------------------/   \----___-------------8---|
-----^--5-6-5-6--/   \------------1------^--5-6-5-6--/   \------------8---|
-0--5-6---------5-6-5-6-0--1-0--0-1--0--5-6---------5-6-5-6-0--1-0--0-8---|
                                *                                   *

----------------------------------------------------------------------------|
----------------------------------------------------------------------------|
----------___---------------------------------___---------------------------|
---------/   \----___------------------------/   \----___------------^------|
-----^--5-6-5-6--/   \------------1------^--5-6-5-6--/   \----------1-0-----|
-0--5-6---------5-6-5-6-0--1-0--0-1--0--5-6---------5-6-5-6-0-0-1-3-----1-3-|
                                *                                    




L                              B
----------------------------------------------------------|
----------------------------------------------------------|
----------------------------------------------------------|
------------------------------------------------------8---|
---------^----------------1----------^----------------8---|
-0--0-0-1-0-0-1-0--1-0--0-1--0--0-0-1-0-0-1-0--1-0--0-8---|
    * *                 *       * *                 *


----------------------------------------------------------|
----------------------------------------------------------|
----------------------------------------------------------|
------------------------------------------------------8---|
---------^----------------1----------^----------------8---|
-0--0-0-1-0-0-1-0--1-0--0-1--0--0-0-1-0-0-1-0--1-0--0-8---|
    * *                 *       * *                 *


------------------------------------------------------------|
------------------------------------------------------------|
------------------------------------------------------------|
-----------------------------------------------------^------|
---------^----------------1----------^--------------1-0-----|
-0--0-0-1-0-0-1-0--1-0--0-1--0--0-0-1-0-0-1-0-0-1-3-----1-3-|
    * *                 *       * *          


----------------------------------------------------------|
----------------------------------------------------------|
----------------------------------------------------------|
------------------------------------------------------8---|
---------^----------------1----------^----------------8---|
-0--0-0-1-0-0-1-0--1-0--0-1--0--0-0-1-0-0-1-0--1-0--0-8---|
    * *                 *       * *                 *


------------------------------------------------------------|
------------------------------------------------------------|
------------------------------------------------------------|
-----------------------------------------------------^------|
---------^----------------1----------^--------------1-0-----|
-0--0-0-1-0-0-1-0--1-0--0-1--0--0-0-1-0-0-1-0-0-1-3-----1-3-|
    * *                 *       * *          



5:40


----------------------------------------------------------|
----------------------------------------------------------|
------------------------------------------___-------------|
-----------------------------------------/   \---^--------|
------------5------------5------------0-5-6-5-0-5-0---0---|
-6~\--0-5-6---6~\--0-5-6---6~\--0-5-6---------------6-----|


----------------------------------------------------------|
----------------------------------------------------------|
------------------------------------------___-------------|
-----------------------------------------/   \---^--------|
------------5------------5------------0-5-6-5-0-5-0--^----|
-6~\--0-5-6---6~\--0-5-6---6~\--0-5-6---------------1-0---|



----------------------------------------------------------|
----------------------------------------------------------|
------------------------------------------___-------------|
-----------------------------------------/   \---^--------|
------------5------------5------------0-5-6-5-0-5-0---0---|
-6~\--0-5-6---6~\--0-5-6---6~\--0-5-6---------------6-----|


----------------------------------------------------------|
----------------------------------------------------------|
------------------------------------------___-------------|
-----------------------------------------/   \---^--------|
------------5------------5------------0-5-6-5-0-5-0--^----|
-6~\--0-5-6---6~\--0-5-6---6~\--0-5-6---------------1-0---|






5:58


L
-------------------------------------------------|
-------------------------------------------------|
-------------------------------------------------|
------------------------------------------PH-----|
-0--1--0--1--0--1--6--5--0--1--0--1--0--1-2-PH---|
-0--1--0--1--0--1--6--5--0--1--0--1--0--1----3~--|
 *  *  *  *  *  *  *  *  *  *  *  *  *  *

R
-------------------------------------------------|
-------------------------------------------------|
-------------------------------------------------|
-------------------------------------------------|
-0--1--0--1--0--1--6--5--0--1--0--1--0--1---)-(--|
-0--1--0--1--0--1--6--5--0--1--0--1--0--1--1-----|
 *  *  *  *  *  *  *  *  *  *  *  *  *  *



L
-------------------------------------------------|
-------------------------------------------------|
-------------------------------------------------|
------------------------------------------PH-----|
-0--1--0--1--0--1--6--5--0--1--0--1--0--1-2-PH---|
-0--1--0--1--0--1--6--5--0--1--0--1--0--1----3~--|
 *  *  *  *  *  *  *  *  *  *  *  *  *  *

R
-------------------------------------------------|
-------------------------------------------------|
-------------------------------------------------|
-------------------------------------------------|
-0--1--0--1--0--1--6--5--0--1--0--1--0--1---)PH--|
-0--1--0--1--0--1--6--5--0--1--0--1--0--1--1-----|
 *  *  *  *  *  *  *  *  *  *  *  *  *  *






6:08


--------------------------------------------------------------------------|
--------------------------------------------------------------------------|
----------___---------------------------------___-------------------------|
---------/   \----___------------------------/   \----___-------------8---|
-----^--5-6-5-6--/   \------------1------^--5-6-5-6--/   \------------8---|
-0--5-6---------5-6-5-6-0--1-0--0-1--0--5-6---------5-6-5-6-0--1-0--0-8---|
                                *                                   *

----------------------------------------------------------------------------|
----------------------------------------------------------------------------|
----------___---------------------------------___---------------------------|
---------/   \----___------------------------/   \----___------------^------|
-----^--5-6-5-6--/   \------------1------^--5-6-5-6--/   \----------1-0-----|
-0--5-6---------5-6-5-6-0--1-0--0-1--0--5-6---------5-6-5-6-0-0-1-3-----1-3-|
                                *                                    


6:18

------------------------------------------------------|
------------------------------------------------------|
--------------___------------------------___----------|
-----^--5----/   \---^----------^--5----/   \---^-----|
----5-6---6-5-6-5-0-5-0---0----5-6---6-5-6-5-0-5-0-1--|
-0----------------------6---0----------------------1--|


--------------------------------------------------------|
--------------------------------------------------------|
--------------___---------------------------------------|
-----^--5----/   \---^----------^--5------------^-------|
----5-6---6-5-6-5-0-5-0---0----5-6---6---------1-0------|
-0----------------------6---0----------1-0-1-3-----1-3--|








1
-------------------------------------------------------------|
-------------------------------------------------------------|
-------------------------------------------------------------|
-------------------------------------------------------------|
-------------------------------------------------------------|
-1--1111-1--1111-1--1111-3--0--1--1111-1--1111-1--1111-5--3--|
    ****    ****    ****          ****    ****    ****
2
------------------------------------------------------------|
------------------------------------------------------------|
-8------------10-------7-----8--------12------10------------|
-X-------------X-------X-----X---------X-------X------------|
-6-------------8-------5-----6--------10-------8------------|
------------------------------------------------------------|
             /                      /

1
-------------------------------------------------------------|
-------------------------------------------------------------|
-------------------------------------------------------------|
-------------------------------------------------------------|
----------------------------10-------------------------------|
-0--0000-0--0000-0--0000--1-10-0--0000-0--0000-0--0000-3--0--|
    ****    ****    ****          ****    ****    ****

2
-----------------------------------___-----------------------|
----------------------------------/   \----------------------|
-7-------------------------------7-8-7-5--7------------------|
-X-------------------------------X-X-X-X--X------------------|
-5-------------------------------5/6\5\3--5------------------|
-------------------------------------------------------------|


1
-------------------------------------------------------------|
-------------------------------------------------------------|
-------------------------------------------------------------|
-------------------------------------------------------------|
-------------------------------------------------------5--3--|
-1--1111-1--1111-1--1111-3--0--1--1111-1--1111-1--1111-5--3--|
    ****    ****    ****          ****    ****    ****
2
-------------------------------------------------------------|
-------------------------------------------------------------|
--17-----------15-14-15------------19------17------12--------|
---X------------X--X--X-------------X-------X-------X--------|
-/15-----------13\12-13------------17------15------10--------|
-------------------------------------------------------------|
                                /

1
-------------------------------------------------------------|
-------------------------------------------------------------|
-------------------------------------------------------------|
-------------------------------------------------------------|
----------------------------10-------------------------------|
-0--0000-0--0000-0--0000--1-10-0--0000-0--0000-0--0000-3--0--|
    ****    ****    ****          ****    ****    ****

2
-------------------------------------------------------------|
-------------------------------------------------------------|
-14----------------------------------------------------------|
--X--------------P-------------------------------------------|
-12---------------S\-----------------------------------------|
-------------------------------------------------------------|







6:46

------------------------------------------------------|
------------------------------------------------------|
--------------___------------------------___----------|
-----^--5----/   \---^----------^--5----/   \---^-----|
----5-6---6-5-6-5-0-5-0---0----5-6---6-5-6-5-0-5-0-1--|
-0----------------------6---0----------------------1--|


--------------------------------------------------------|
--------------------------------------------------------|
--------------___---------------------------------------|
-----^--5----/   \---^----------^--5------------^-------|
----5-6---6-5-6-5-0-5-0---0----5-6---6---------1-0------|
-0----------------------6---0----------1-0-1-3-----1-3--|



------------------------------------------------------|
------------------------------------------------------|
--------------___------------------------___----------|
-----^--5----/   \---^----------^--5----/   \---^-----|
----5-6---6-5-6-5-0-5-0---0----5-6---6-5-6-5-0-5-0-1--|
-0----------------------6---0----------------------1--|


-------------------------------------------------------------------------------|
-------------------------------------------------------------------------------|
--------------___--------------------------------------------------------------|
-----^--5----/   \---^----------^--5------------^------------------------------|
----5-6---6-5-6-5-0-5-0---0----5-6---6---------1-0------1-3--1-3--1-3------1-3-|
-0----------------------6---0----------1-0-1-3-----1-3--1-3--1-3--1-3------1-3-|
                                                        * *  * *  * *      * *





7:07


L
-------------------------------------------------|
-------------------------------------------------|
-------------------------------------------------|
------------------------------------------PH-----|
-0--1--0--1--0--1--6--5--0--1--0--1--0--1-2-PH---|
-0--1--0--1--0--1--6--5--0--1--0--1--0--1----3~--|
 *  *  *  *  *  *  *  *  *  *  *  *  *  *

R
-------------------------------------------------|
-------------------------------------------------|
-------------------------------------------------|
-------------------------------------------------|
-0--1--0--1--0--1--6--5--0--1--0--1--0--1---)PH--|
-0--1--0--1--0--1--6--5--0--1--0--1--0--1--1-----|
 *  *  *  *  *  *  *  *  *  *  *  *  *  *



L
-------------------------------------------------|
-------------------------------------------------|
-------------------------------------------------|
------------------------------------------PH-----|
-0--1--0--1--0--1--6--5--0--1--0--1--0--1-2-PH---|
-0--1--0--1--0--1--6--5--0--1--0--1--0--1----3~--|
 *  *  *  *  *  *  *  *  *  *  *  *  *  *

R
-------------------------------------------------|
-------------------------------------------------|
-------------------------------------------------|
-------------------------------------------------|
-0--1--0--1--0--1--6--5--0--1--0--1--0--1---)PH--|
-0--1--0--1--0--1--6--5--0--1--0--1--0--1--1-----|
 *  *  *  *  *  *  *  *  *  *  *  *  *  *





7:17

--------------------------------------------------------------------------|
--------------------------------------------------------------------------|
----------___---------------------------------___-------------------------|
---------/   \----___------------------------/   \----___-------------8---|
-----^--5-6-5-6--/   \------------1------^--5-6-5-6--/   \------------8---|
-0--5-6---------5-6-5-6-0--1-0--0-1--0--5-6---------5-6-5-6-0--1-0--0-8---|
                                *                                   *

---------------------------------------|
---------------------------------------|
----------___--------------------------|
---------/   \----___------------------|
-----^--5-6-5-6--/   \------------1--0-|
-0--5-6---------5-6-5-6-0--1-0--0-1--0-|
                                *                                    




7:25

L
------------------------------------------------------------------|
------------------_______________---------------------------------|
------------------)||||||||||||||(--------------------------------|
-4444444444444444444444444444444444444444444444447777777777777777-|
------------------------------------------------------------------|
------------------------------------------------------------------|

R
------------------------------------------------------------------|
------------------------------------------------------------------|
------------------________________--------------------------------|
------------------)||||||||||||||(--------------------------------|
-5555555555555555555555555555555555555555555555558888888888888888-|
------------------------------------------------------------------|



L
-----------------------------------------------------------------------------------|
------------------_______________--------------------------------------------------|
------------------)||||||||||||||(-------------------------------------------------|
-444444444444444444444444444444444444444444444444----------------------------------|
-------------------------------------------------12121212121212121212121212121212--|
-----------------------------------------------------------------------------------|

R
----------------------------------------------------------------------------------|
----------------------------------------------------------------------------------|
------------------________________------------------------------------------------|
------------------)||||||||||||||(------------------------------------------------|
-55555555555555555555555555555555555555555555555512121212121212121212121212121212-|
----------------------------------------------------------------------------------|





7:35


L
-------------------------------------------------|
-------------------------------------------------|
-------------------------------------------------|
-------------------6--5--------------------3--1--|
-0--1--0--1--0--1--6--5--0--1--0--1--0--1--3--1--|
-0--1--0--1--0--1--6--5--0--1--0--1--0--1--3--1--|

R
-------------------------------------------------|
-------------------------------------------------|
-------------------------------------------------|
-------------------------------------------------|
-0--1--0--1--0--1--6--5--0--1--0--1--0--1--3--1--|
-0--1--0--1--0--1--6--5--0--1--0--1--0--1--3--1--|


L
-------------------------------------------------|
-------------------------------------------------|
-------------------------------------------------|
-------------------6--5--------------------3--1--|
-0--1--0--1--0--1--6--5--0--1--0--1--0--1--3--1--|
-0--1--0--1--0--1--6--5--0--1--0--1--0--1--3--1--|

R
-------------------------------------------------|
-------------------------------------------------|
-------------------------------------------------|
-------------------------------------------------|
-0--1--0--1--0--1--6--5--0--1--0--1--0--1--3--1--|
-0--1--0--1--0--1--6--5--0--1--0--1--0--1--3--1--|




L
--------------------------------------------------|
--------------------------------------------------|
-14-15-14-15-14-15-20-19-14-15-14-15-14-15-17-15--|
--X--X--X--X--X--X--X--X--X--X--X--X--X--X--X--X--|
-12-13-12-13-12-13-18-17-12-13-12-13-12-13-15-13--|
--------------------------------------------------|
R
-------------------------------------------------|
-------------------------------------------------|
-------------------------------------------------|
-------------------------------------------------|
-0--1--0--1--0--1--6--5--0--1--0--1--0--1--3--1--|
-0--1--0--1--0--1--6--5--0--1--0--1--0--1--3--1--|



L
--------------------------------------------------|
--------------------------------------------------|
-14-15-14-15-14-15-20-19-14-15-14-15-14-15-17-15--|
--X--X--X--X--X--X--X--X--X--X--X--X--X--X--X--X--|
-12-13-12-13-12-13-18-17-12-13-12-13-12-13-15-13--|
--------------------------------------------------|
R
-------------------------------------------------|
-------------------------------------------------|
-------------------------------------------------|
-------------------------------------------------|
-0--1--0--1--0--1--6--5--0--1--0--1--0--1--3--1--|
-0--1--0--1--0--1--6--5--0--1--0--1--0--1--3--1--|




7:53


--------------------------------------------------|
--------------------------------------------------|
--------------------------------------------------|
--------------------------------------------------|
--------------------------------------------------|
--6--1---0-1-1-0-4-4-0-1--6--1---0-1-1-0-1-1-0-1--|


--------------------------------------------------|
--------------------------------------------------|
--------------------------------------------------|
--------------------------------------------------|
--------------------------------------------------|
--6--1---0-1-1-0-4-4-0-1--6--1---0-6-6-0-6-6-0-6--|



--------------------------------------------------|
--------------------------------------------------|
--------------------------------------------------|
--------------------------------------------------|
--------------------------------------------------|
--6--1---0-1-1-0-4-4-0-1--6--1---0-1-1-0-1-1-0-1--|


------------------------------------------------|
------------------------------------------------|
------------------------------------------------|
------------------------------------------------|
-----------------------------------------3-1-0--|
--6--1---0-1-1-0-4-4-0-1--6--1---0-6-6-0-3-1-0--|
                                         * * *    

Added On October 7th, 2014

SHARE

Comments

blog comments powered by Disqus

ADVERTISEMENT