Slipknot Tabs

Skeptic

1 versions

TAB

            SLIPKNOT

SKEPTIC


B-F#-B-E-G#-C#


TABBED BY andherembrace




------------------------------------------------------------------|
------------------------------------------------------------------|
------------------------------------------------------------------|
------------------------------------------------------------------|
------------------------------------------------------------------|
\-001-0-1-0-1-4-1-001-0-1-0-1-4-1-001-0-1-0-1-4-1-001-0-1-001-0-1-|
  *** * * * * * * *** * * * * * * *** * * * * * * *** * * *** * *


------------------------------------------------------------------|
------------------------------------------------------------------|
------------------------------------------------------------------|
------------------------------------------------------------------|
------------------------------------------------------------------|
--001-0-1-0-1-4-1-001-0-1-0-1-4-1-001-0-1-0-1-4-1-001-0-1-001-0-1-|
  *** * * * * * * *** * * * * * * *** * * * * * * *** * * *** * *

----------------------------------|
----------------------------------|
----------------------------------|
----------------------------------|
----------------------------------|
--001-0-1-0-1-4-1-001-0-1-0-1-4-1-|
  *** * * * * * * *** * * * * * * 





0:16

----------------------------------------------|
----------------------------------------------|
----------------------------------------------|
----------------------------------------------|
-----------------------------^--3-------------|
004-3-1-0---0-110-0---0-110-3-4---4-3-0-1-4---|
*** * *   | * ***   | * ***                  
 

---------------------------------------------------------|
---------------------------------------------------------|
---------------------------------------------------------|
----------------------------------------^--3-------------|
---------------------------------------3-4---4-3-0-1-4---|
-004-3-1-0---0-110-0---0-110-0---0-110-------------------|
 *** * *   | * ***   | * ***   | * ***  
 


-------------------------------------------------------|
-------------------------------------------------------|
-------------------------------------------------------|
-------------------------------------------------------|
----------------------------------------^--3-----------|
-004-3-1-0---0-110-0---0-110-0---0-110-3-4---4-3-0-1-4-|
 *** * *   | * ***   | * ***   | * ***


---------------------------------------------------------|
---------------------------------------------------------|
---------------------------------------------------------|
----------------------------------------^--3-------------|
---------------------------------------3-4---4-3-0-1-4---|
-004-3-1-0---0-110-0---0-110-0---0-110-------------------|
 *** * *   | * ***   | * ***   | * ***  
 


0:39


R           L          B
------------------------------------------------------------------|
------------------------------------------------------------------|
------------------------------------------------------------------|
------------------------------------------------------------------|
---------------------------------------------------^--3-----------|
-004-3-1-0---0-110-0---0-110-0---0-110-0----0-110-3-4---4-3-0-1-4-|
 *** * *   | * ***   | * ***   | * ***   |  * *** 


R           L          B
------------------------------------------------------------------|
------------------------------------------------------------------|
------------------------------------------------------------------|
---------------------------------------------------^--3-----------|
--------------------------------------------------3-4---4-3-0-1-4-|
-004-3-1-0---0-110-0---0-110-0---0-110-0----0-110-----------------|
 *** * *   | * ***   | * ***   | * ***   |  * *** 



0:50



L
-----------------------------------------------------------------|
-----------------------------------6-6-8-8-----------------------|
-----------------------------------7-7-9-9---10-10-9-9-7-7-5-----|
-----------------------------------X-X-X-X----X--X-X-X-X-X-X-----|
-----------------------------------5-5/7-7----8--8\7-7\5-5\3-0---|
-3-3-3-3-3-3-3-2-2-2-2-2-2-5-3-0-0----------0--------------------|
                                            *
R
------------------------------------------------------------------|
------------------------------------------------------------------|
-----------------------------------7-7-9-9------------------------|
-----------------------------------X-X-X-X------------------------|
-----------------------------------5-5/7-7-----8--8-7-7-5-5-3-3---|
-3-3-3-3-3-3-3-2-2-2-2-2-2-5-3-0-0----------0-10-10\9-9\7-7\5-5---|
                                            *


L
-------------------------------------------------------------------|
------------------------------------6-6-8-8----11-111010-8-8-6-6---|
------------------------------------7-7-9-9----12-121010-9-9-7-7---|
------------------------------------X-X-X-X-----X--X-X-X-X-X-X-X---|
------------------------------------5-5/7-7----10-10\8-8\7-7\5-5---|
-3--3-3-3-3-3-3-2-2-2-2-2-5-3-2-0-0----------0---------------------|
                                             *
R
---------------------------------------------------------------|
---------------------------------------------------------------|
------------------------------------7-7-9-9--------------------|
------------------------------------X-X-X-X--------------------|
------------------------------------5-5/7-7--------------------|
-3--3-3-3-3-3-3-2-2-2-2-2-5-3-2-0-0----------0-5-5\3-3\2-2\0-0-|
                                             *





1:01

R
-----------------------|
-----------------------|
-----------------------|
-----------------------|
-----------------------|
004-3-1-0---0-110-0----|
*** * *   | * ***   |               
 

B
----------------------------------------------|
----------------------------------------------|
----------------------------------------------|
----------------------------------------------|
-----------------------------^--3-------------|
004-3-1-0---0-110-0---0-110-3-4---4-3-0-1-4---|
*** * *   | * ***   | * ***                  
 

---------------------------------------------------------|
---------------------------------------------------------|
---------------------------------------------------------|
----------------------------------------^--3-------------|
---------------------------------------3-4---4-3-0-1-4---|
-004-3-1-0---0-110-0---0-110-0---0-110-------------------|
 *** * *   | * ***   | * ***   | * ***  
 


-------------------------------------------------------|
-------------------------------------------------------|
-------------------------------------------------------|
-------------------------------------------------------|
----------------------------------------^--3-----------|
-004-3-1-0---0-110-0---0-110-0---0-110-3-4---4-3-0-1-4-|
 *** * *   | * ***   | * ***   | * ***


---------------------------------------------------------|
---------------------------------------------------------|
---------------------------------------------------------|
----------------------------------------^--3-------------|
---------------------------------------3-4---4-3-0-1-4---|
-004-3-1-0---0-110-0---0-110-0---0-110-------------------|
 *** * *   | * ***   | * ***   | * ***  
 


1:26


R           L          B
------------------------------------------------------------------|
------------------------------------------------------------------|
------------------------------------------------------------------|
------------------------------------------------------------------|
---------------------------------------------------^--3-----------|
-004-3-1-0---0-110-0---0-110-0---0-110-0----0-110-3-4---4-3-0-1-4-|
 *** * *   | * ***   | * ***   | * ***   |  * *** 



R           L          B
------------------------------------------------------------------|
------------------------------------------------------------------|
------------------------------------------------------------------|
---------------------------------------------------^--3-----------|
--------------------------------------------------3-4---4-3-0-1-4-|
-004-3-1-0---0-110-0---0-110-0---0-110-0----0-110-----------------|
 *** * *   | * ***   | * ***   | * ***   |  * *** 





1:37

----------------------------------------------------------------|
----------------------------------------------------------------|
----------------------------------------------------------------|
-8-----7--------------------------------------------------------|
-8-----7-------------11----------11---------11---------11-------|
-8-----7-7-7-7-7-7-7-----12-0-12----12-0-12----12-0-12----12-0--|


--------------------------------------------------------------|
--------------------------------------------------------------|
---------------------------_----------------------------------|
-8--------------7---------/ \--6------------------------------|
-8--------------7--------7-8-7-6------------------------------|
-8--8-8-8-888-8-7--7-7-7-7/8\7-6-6-6-6-776-6-6-776-6-6-776-6--|
    * * * *** *    * * *         * * * *** * * *** * * *** *


-----------------------------------------------------------------|
-----------------------------------------------------------------|
-----------------------------------------------------------------|
-8-----7---------------------------------------------------------|
-8-----7-------------11----------11---------11---------11--------|
-8-----7-7-7-7-7-7-7-----12-0-12----12-0-12----12-0-12----12-/ \-|




1:53



L
-----------------------------------------------------------------|
-----------------------------------6-6-8-8-----------------------|
-----------------------------------7-7-9-9---10-10-9-9-7-7-5-----|
-----------------------------------X-X-X-X----X--X-X-X-X-X-X-----|
-----------------------------------5-5/7-7----8--8\7-7\5-5\3-0---|
-3-3-3-3-3-3-3-2-2-2-2-2-2-5-3-0-0----------0--------------------|
                                            *
R
------------------------------------------------------------------|
------------------------------------------------------------------|
-----------------------------------7-7-9-9------------------------|
-----------------------------------X-X-X-X------------------------|
-----------------------------------5-5/7-7-----8--8-7-7-5-5-3-3---|
-3-3-3-3-3-3-3-2-2-2-2-2-2-5-3-0-0----------0-10-10\9-9\7-7\5-5---|
                                            *


L
-------------------------------------------------------------------|
------------------------------------6-6-8-8----11-111010-8-8-6-6---|
------------------------------------7-7-9-9----12-121010-9-9-7-7---|
------------------------------------X-X-X-X-----X--X-X-X-X-X-X-X---|
------------------------------------5-5/7-7----10-10\8-8\7-7\5-5---|
-3--3-3-3-3-3-3-2-2-2-2-2-5-3-2-0-0----------0---------------------|
                                             *
R
----------------------------------------------------------------|
----------------------------------------------------------------|
------------------------------------7-7-9-9---------------------|
------------------------------------X-X-X-X---------------------|
------------------------------------5-5/7-7---------------------|
-3--3-3-3-3-3-3-2-2-2-2-2-5-3-2-0-0----------0-5-5\3-3\2-2\0-0--|
                                             *







L
-----------------------------------------------------------------|
-----------------------------------6-6-8-8-----------------------|
-----------------------------------7-7-9-9---10-10-9-9-7-7-5-----|
-----------------------------------X-X-X-X----X--X-X-X-X-X-X-----|
-----------------------------------5-5/7-7----8--8\7-7\5-5\3-0---|
-3-3-3-3-3-3-3-2-2-2-2-2-2-5-3-0-0----------0--------------------|
                                            *
R
------------------------------------------------------------------|
------------------------------------------------------------------|
-----------------------------------7-7-9-9------------------------|
-----------------------------------X-X-X-X------------------------|
-----------------------------------5-5/7-7-----8--8-7-7-5-5-3-3---|
-3-3-3-3-3-3-3-2-2-2-2-2-2-5-3-0-0----------0-10-10\9-9\7-7\5-5---|
                                            *


L
-------------------------------------------------------------------|
------------------------------------6-6-8-8----11-111010-8-8-6-6---|
------------------------------------7-7-9-9----12-121010-9-9-7-7---|
------------------------------------X-X-X-X-----X--X-X-X-X-X-X-X---|
------------------------------------5-5/7-7----10-10\8-8\7-7\5-5---|
-3--3-3-3-3-3-3-2-2-2-2-2-5-3-2-0-0----------0---------------------|
                                             *
R
----------------------------------------------------------------|
----------------------------------------------------------------|
------------------------------------7-7-9-9---------------------|
------------------------------------X-X-X-X---------------------|
------------------------------------5-5/7-7---------------------|
-3--3-3-3-3-3-3-2-2-2-2-2-5-3-2-0-0----------0-5-5\3-3\2-2\0-0-0|
                                             *




2:14

B
--------------------------------------------------------------------------|
------------------12---------------------------------12--------14---------|
---------------15----15---------------------------15----15--17----17------|
--------------------------------------------------------------------------|
--------------------------------------------------------------------------|
-0--0-0-000-0-----------0-0-000-0-0-0--0-0-000-0---------------------0-0--|
    * * *** *           * * *** * *    * * *** *          |          * *


L
-------------------------------------------------------------------------------|
------------------12---------------------------------15--------17--------15----|
---------------15----15---------------------------18----18--20----20--18----18-|
-------------------------------------------------------------------------------|
-------------------------------------------------------------------------------|
-0--0-0-000-0-----------0-0-000-0-0-0--0-0-000-0-------------------------------|
    * * *** *           * * *** * *    * * *** *          |          |
R
-------------------------------------------------------------------------------|
------------------12---------------------------------12--------14--------12----|
---------------15----15---------------------------15----15--17----17--15----15-|
-------------------------------------------------------------------------------|
-------------------------------------------------------------------------------|
-0--0-0-000-0-----------0-0-000-0-0-0--0-0-000-0-------------------------------|
    * * *** *           * * *** * *    * * *** *          |          | 


B
--------------------------------------------------------------------------|
------------------12---------------------------------12--------14---------|
---------------15----15---------------------------15----15--17----17------|
--------------------------------------------------------------------------|
--------------------------------------------------------------------------|
----0-0-000-0-----------0-0-000-0-0-0--0-0-000-0---------------------0-0--|
    * * *** *           * * *** * *    * * *** *          |          * *


L
-------------------------------------------------------------------------------|
------------------12---------------------------------15--------17--------15----|
---------------15----15---------------------------18----18--20----20--18----18-|
-------------------------------------------------------------------------------|
-------------------------------------------------------------------------------|
-0--0-0-000-0-----------0-0-000-0-0-0--0-0-000-0-------------------------------|
    * * *** *           * * *** * *    * * *** *          |          |
R
-------------------------------------------------------------------------------|
------------------12---------------------------------12--------14--------12----|
---------------15----15---------------------------15----15--17----17--15----15-|
-------------------------------------------------------------------------------|
-------------------------------------------------------------------------------|
-0--0-0-000-0-----------0-0-000-0-0-0--0-0-000-0-------------------------------|
    * * *** *           * * *** * *    * * *** *          |          | 

L
---------------------------------------------|
----17--------15-----------------------------|
-20----20--18----18-------------4---2--------|
--------------------------------2---0--------|
--------------------------------2---0--------|
--------------------0-0-000-0-0-2---0-----\--|
          |         * * *** * * 
R
---------------------------------------------|
----14--------12-----------------------------|
-17----17--15----15--------------------------|
--------------------------------2---0--------|
--------------------------------2---0--------|
--------------------0-0-000-0-0-2---0-----\--|
          |         * * *** * *





2:40

--------------------------------------------------------|
--------------------------------------------------------|
--------------------------------------------------------|
--^---^------------------^---^---^--------------^-------|
-0-1-0-1-0----0-1-2-3/4-3-1-0-1-0-1-0----4\3-1-3-1-0-1--|
-0-1-0-1-0----0-1-2-3/4-3-1-0-1-0-1-0----4\3-1-3-1-0-1--|
           |                          |

------------------------------------------------------|
------------------------------------------------------|
------------------------------------------------------|
--^---^----------------^---^---^--------------^-------|
-0-1-0-1-0----0-1-3/4-3-1-0-1-0-1-0----4\3-1-3-1-0-1--|
-0-1-0-1-0----0-1-3/4-3-1-0-1-0-1-0----4\3-1-3-1-0-1--|
           |                        |



------------------------------------------------------|
------------------------------------------------------|
---------------_-----___------------------------------|
--^---^-------/ \---/   \---^---^-------------^-------|
-4-5-4-5-4---5-4-5-7-8-7-5-4-5-4-5-4---8\7-5-7-5-4-5--|
-4-5-4-5-4---5\4/5-7/8\7-5-4-5-4-5-4---8\7-5-7-5-4-5--|
           |                         |

------------------------------------------------------|
------------------------------------------------------|
---------------_-----___------------------------------|
--^---^-------/ \---/   \---^---^-------------^-------|
-4-5-4-5-4---5-4-5-7-8-7-5-4-5-4-5-4---8\7-5-7-5-4-5--|
-4-5-4-5-4---5\4/5-7/8\7-5-4-5-4-5-4---8\7-5-7-5-4-5--|
           |                         |



3:01


------------------------------------------------------------------|
------------------------------------------------------------------|
------------------------------------------------------------------|
--^---^-----------------------^---^---^-------------------^-------|
-0-1-0-1-0---------0-1-2-3/4-3-1-0-1-0-1-0---------4\3-1-3-1-0-1--|
-0-1-0-1-0-0-0-0-0-0-1-2-3/4-3-1-0-1-0-1-0-0-0-0-0-4\3-1-3-1-0-1--|
           * * * *                         * * * *                           


------------------------------------------------------------------|
------------------------------------------------------------------|
------------------------------------------------------------------|
--^---^-----------------------^---^---^-------------------^-------|
-0-1-0-1-0---------0-1-2-3/4-3-1-0-1-0-1-0---------4\3-1-3-1-0-1--|
-0-1-0-1-0-0-0-0-0-0-1-2-3/4-3-1-0-1-0-1-0-0-0-0-0-4\3-1-3-1-0-1--|
           * * * *                         * * * *               


---------------------------------------------------|
---------------------------------------------------|
---------------------------------------------------|
---------------------------------------------------|
-1--0--5--4--8--7--4--5---1--0--5--4--10--9--4--5--|
-1--0--5--4--8--7--4--5---1--0--5--4--10--9--4--5--|



---------------------------------------------------|
---------------------------------------------------|
---------------------------------------------------|
---------------------------------------------------|
----------------------------------1-0-5-4-8-7-4-5--|
-11110000555544448888777744445555-1-0-5-4-8-7-4-5--|
                                  * * * * * * * *

L
-------------------|
-------------------|
---_-----_____-----|
--/ \ --/     \----|
-5-4-0-4-5-7/8\7---|
-------------------|

R
-------------------|
-------------------|
-------------------|
---_-----_____-----|
--/ \ --/     \----|
-5-4-0-4-5-7/8\7---|





3:23

L
-------------------------------------------------------|
-------------------------------------------------------|
10----9------------------------------------------------|
-X----X------------------------------------------------|
-8----7---/--11---------11---------11---------11-------|
----------------12-0-12----12-0-12----12-0-12----12-0--|

R
-------------------------------------------------------|
-------------------------------------------------------|
-------------------------------------------------------|
-------------------------------------------------------|
-8----7-----11---------11---------11---------11--------|
-8----7--------12-0-12----12-0-12----12-0-12----12-0---|


L
--------_____--------------------------------------|
-------/     \-------------------------------------|
-7----6-----7-6-5-------------------------P--------|
-X----X-----X-X-X--------------------------S-------|
-5----4----/5\4-3-3-3-3-4-3-3-3-4-3-3-3------------|
---------------------------------------------------|
                  * * *   * * *   * * *
R
--------------------------------------------------------------|
--------------------------------------------------------------|
--------------------------------------------------------------|
---------------------------^----------------------------------|
-8--------------7--------7-8-7-6------------------------------|
-8--8-8-8-8-8-8-7--7-7-7-7-8-7-6-6-6-6-7-6-6-6-7-6-6-6-7-6-5--|
    * * * * * *    * * *         * * *   * * *   * * *  



L
--------------------------------------------------------------|
--------------------------------------------------------------|
10----9-------------------------------------------------------|
-X----X-------------------------------------------------------|
-8----7---/---------11---------11---------11---------11-------|
-----------------------12-0-12----12-0-12----12-0-12----12-0--|

R
---------------------------------------------------------------|
---------------------------------------------------------------|
---------------------------------------------------------------|
---------------------------------------------------------------|
-8----7-------------11---------11---------11---------11--------|
-8----7-7-7-7-7-7-7----12-0-12----12-0-12----12-0-12----12-0---|



--------------------------------------------------------------|
--------------------------------------------------------------|
--------------------------------------------------------------|
---------------------------^----------------------------------|
-8--------------7--------7-8-7-6------------------------------|
-8--8-8-8-888-8-7--7-7-7-7-8-7-6-6-6-6-776-6-6-776-6-6-776-6--|
    * * * *** *    * * *         * * * *** * * *** * * *** * 




---------------------------------------------------------------|
---------------------------------------------------------------|
---------------------------------------------------------------|
-8----7--------------------------------------------------------|
-8----7-------------11---------11---------11---------11--------|
-8----7-7-7-7-7-7-7----12-0-12----12-0-12----12-0-12----12-/-\-|








3:48

L
-----------------------------------------------------------------|
-----------------------------------6-6-8-8-----------------------|
-----------------------------------7-7-9-9---10-10-9-9-7-7-5-----|
-----------------------------------X-X-X-X----X--X-X-X-X-X-X-----|
-----------------------------------5-5/7-7----8--8\7-7\5-5\3-0---|
-3-3-3-3-3-3-3-2-2-2-2-2-2-5-3-0-0----------0--------------------|
                                            *
R
------------------------------------------------------------------|
------------------------------------------------------------------|
-----------------------------------7-7-9-9------------------------|
-----------------------------------X-X-X-X------------------------|
-----------------------------------5-5/7-7-----8--8-7-7-5-5-3-3---|
-3-3-3-3-3-3-3-2-2-2-2-2-2-5-3-0-0----------0-10-10\9-9\7-7\5-5---|
                                            *


L
-------------------------------------------------------------------|
------------------------------------6-6-8-8----11-111010-8-8-6-6-8-|
------------------------------------7-7-9-9-9--12-121010-9-9-7-7-7-|
------------------------------------X-X-X-X-X---X--X-X-X-X-X-X-X-X-|
------------------------------------5-5/7-7-7--10-10\8-8\7-7\5-5-5-|
-3--3-3-3-3-3-3-2-2-2-2-2-5-3-2-0-0----------0---------------------|
                                             *
R
----------------------------------------------------------------|
----------------------------------------------------------------|
------------------------------------7-7-9-9-9-------------------|
------------------------------------X-X-X-X-X-------------------|
------------------------------------5-5/7-7-7-------------------|
-3--3-3-3-3-3-3-2-2-2-2-2-5-3-2-0-0----------0-5-5\3-3\2-2\0-0-0|
                                             *





L
-----------------------------------------------------------------|
-----------------------------------6-6-8-8-8---------------------|
-----------------------------------7-7-9-9-9-10-10-9-9-7-7-5-----|
-----------------------------------X-X-X-X-X--X--X-X-X-X-X-X-----|
-----------------------------------5-5/7-7-7--8--8\7-7\5-5\3-0---|
-3-3-3-3-3-3-3-2-2-2-2-2-2-5-3-0-0----------0--------------------|
                                            *
R
------------------------------------------------------------------|
------------------------------------------------------------------|
-----------------------------------7-7-9-9-9----------------------|
-----------------------------------X-X-X-X-X----------------------|
-----------------------------------5-5/7-7-7---8--8-7-7-5-5-3-3---|
-3-3-3-3-3-3-3-2-2-2-2-2-2-5-3-0-0----------0-10-10\9-9\7-7\5-5---|
                                            *


L
-------------------------------------------------------------------|
------------------------------------6-6-8-8-8--11-111010-8-8-6-6-6-|
------------------------------------7-7-9-9-9--12-121010-9-9-7-7-7-|
------------------------------------X-X-X-X-X---X--X-X-X-X-X-X-X-X-|
------------------------------------5-5/7-7-7--10-10\8-8\7-7\5-5-5-|
-3--3-3-3-3-3-3-2-2-2-2-2-5-3-2-0-0----------0---------------------|
                                             *
R
----------------------------------------------------------------|
----------------------------------------------------------------|
------------------------------------7-7-9-9-9-------------------|
------------------------------------X-X-X-X-X-------------------|
------------------------------------5-5/7-7-7-------------------|
-3--3-3-3-3-3-3-2-2-2-2-2-5-3-2-0-0----------0-5-5\3-3\2-2\0-0-0|
                                             *



4:10



L
-----------------------------------------------------------------|
-----------------------------------6-6-8-8-----------------------|
-----------------------------------7-7-9-9-9-10-10-9-9-7-7-5-----|
-----------------------------------X-X-X-X-X--X--X-X-X-X-X-X-----|
-----------------------------------5-5/7-7-7--8--8\7-7\5-5\3-0---|
-3-3-3-3-3-3-3-2-2-2-2-2-2-5-3-0-0----------0--------------------|
                                            *
R
------------------------------------------------------------------|
------------------------------------------------------------------|
-----------------------------------7-7-9-9-9----------------------|
-----------------------------------X-X-X-X-X----------------------|
-----------------------------------5-5/7-7-7---8--8-7-7-5-5-3-3---|
-3-3-3-3-3-3-3-2-2-2-2-2-2-5-3-0-0----------0-10-10\9-9\7-7\5-5---|
                                            *


L
-------------------------------------------------------------------|
------------------------------------6-6-8-8-8--11-111010-8-8-6-6-6-|
------------------------------------7-7-9-9-9--12-121010-9-9-7-7-7-|
------------------------------------X-X-X-X-X---X--X-X-X-X-X-X-X-X-|
------------------------------------5-5/7-7-7--10-10\8-8\7-7\5-5-5-|
-3--3-3-3-3-3-3-2-2-2-2-2-5-3-2-0-0----------0---------------------|
                                             *
R
----------------------------------------------------------------|
----------------------------------------------------------------|
------------------------------------7-7-9-9-9-------------------|
------------------------------------X-X-X-X-X-------------------|
------------------------------------5-5/7-7-7-------------------|
-3--3-3-3-3-3-3-2-2-2-2-2-5-3-2-0-0----------0-5-5\3-3\2-2\0-0-0|
                                             *




4:21 

----------------------------------------------------------------------------|
----------------------------------------------------------------------------|
----------------------------------------------------------------------------|
----------------------------------------------------------------------------|
-----------------------------------------------------------^--3-------------|
-0-4-3-1-0--0-0-0-0-0-1-0-0-0-0-0-0-0-1-0-0-0-0-0-0-0-1-0-3-4---4-3-0-1-4---|
 * * * *    * * * * *   *   * * * * *   *   * * * * *   *


----------------------------------------------------------------------------|
----------------------------------------------------------------------------|
----------------------------------------------------------------------------|
-----------------------------------------------------------^--3-------------|
----------------------------------------------------------3-4---4-3-0-1-4---|
-0-4-3-1-0--0-0-0-0-0-1-0-0-0-0-0-0-0-1-0-0-0-0-0-0-0-1-0-------------------|
 * * * *    * * * * *   *   * * * * *   *   * * * * *   *



----------------------------------------------------------------------------|
----------------------------------------------------------------------------|
----------------------------------------------------------------------------|
----------------------------------------------------------------------------|
-----------------------------------------------------------^--3-------------|
-0-4-3-1-0--0-0-0-0-0-1-0-0-0-0-0-0-0-1-0-0-0-0-0-0-0-1-0-3-4---4-3-0-1-4---|
 * * * *    * * * * *   *   * * * * *   *   * * * * *   *


----------------------------------------------------------------------------|
----------------------------------------------------------------------------|
----------------------------------------------------------------------------|
-----------------------------------------------------------^--3-------------|
----------------------------------------------------------3-4---4-3-0-1-4---|
-0-4-3-1-0--0-0-0-0-0-1-0-0-0-0-0-0-0-1-0-0-0-0-0-0-0-1-0-------------------|
 * * * *    * * * * *   *   * * * * *   *   * * * * *   *    

Added On October 10th, 2014

SHARE

Comments

blog comments powered by Disqus

ADVERTISEMENT