Slipknot Tabs

The Burden

1 versions

TAB

            SLIPKNOT

THE BURDEN

A-E-A-D-F#-B


TABBED BY andherembrace







0:24

1
-----------------------------------------------------------------|
-----------------------------------------------------------------|
------------------_______________--------------------------------|
------------------)| | | | | | |(--------------------------------|
-5-5-5-5-5-5-5-5-5-5-5-5-5-5-5-5-5-5-5-5-5-5-5-5-5-5-5-5-5-5-5-5-|
-----------------------------------------------------------------|

2
------------------_______________---------------------------------|
------------------)| | | | | | |(---------------------------------|
1414141414141414141414141414141414141414141414141414141414141414--|
-x-x-x-x-x-x-x-x-x-x-x-x-x-x-x-x-x-x-x-x-x-x-x-x-x-x-x-x-x-x-x-x--|
1212121212121212121212121212121212121212121212121212121212121212--|
------------------------------------------------------------------|



1
-----------------------------------------------------------------|
-----------------------------------------------------------------|
------------------_______________--------------------------------|
------------------)| | | | | | |(--------------------------------|
-5-5-5-5-5-5-5-5-5-5-5-5-5-5-5-5-5-5-5-5-5-5-5-5-5-5-5-5-5-5-5-5-|
-----------------------------------------------------------------|

2
------------------_______________---------------------------------|
------------------)| | | | | | |(---------------------------------|
1414141414141414141414141414141414141414141414141414141414141414--|
-x-x-x-x-x-x-x-x-x-x-x-x-x-x-x-x-x-x-x-x-x-x-x-x-x-x-x-x-x-x-x-x--|
1212121212121212121212121212121212121212121212121212121212121212--|
------------------------------------------------------------------|



1
-----------------------------------------------------------------|
-----------------------------------------------------------------|
------------------_______________--------------------------------|
------------------)| | | | | | |(--------------------------------|
-5-5-5-5-5-5-5-5-5-5-5-5-5-5-5-5-5-5-5-5-5-5-5-5-5-5-5-5-5-5-5-5-|
-----------------------------------------------------------------|

2
------------------_______________---------------------------------|
------------------)| | | | | | |(---------------------------------|
1414141414141414141414141414141414141414141414141414141414141414--|
-x-x-x-x-x-x-x-x-x-x-x-x-x-x-x-x-x-x-x-x-x-x-x-x-x-x-x-x-x-x-x-x--|
1212121212121212121212121212121212121212121212121212121212121212--|
------------------------------------------------------------------|



1
-----------------------------------------------------------------|
-----------------------------------------------------------------|
------------------_______________--------------------------------|
------------------)| | | | | | |(--------------------------------|
-5-5-5-5-5-5-5-5-5-5-5-5-5-5-5-5-5-5-5-5-5-5-5-5-5-5-5-5-5-5-5-5-|
-----------------------------------------------------------------|

2
------------------_______________---------------------------------|
------------------)| | | | | | |(---------------------------------|
1414141414141414141414141414141414141414141414141414141414141414--|
-x-x-x-x-x-x-x-x-x-x-x-x-x-x-x-x-x-x-x-x-x-x-x-x-x-x-x-x-x-x-x-x--|
1212121212121212121212121212121212121212121212121212121212121212--|
------------------------------------------------------------------|








1
-----------------------------------------------------------------|
-----------------------------------------------------------------|
------------------_______________--------------------------------|
------------------)| | | | | | |(--------------------------------|
-5-5-5-5-5-5-5-5-5-5-5-5-5-5-5-5-5-5-5-5-5-5-5-5-5-5-5-5-5-5-5-5-|
-----------------------------------------------------------------|

2
------------------_______________---------------------------------|
------------------)| | | | | | |(---------------------------------|
1414141414141414141414141414141414141414141414141414141414141414--|
-x-x-x-x-x-x-x-x-x-x-x-x-x-x-x-x-x-x-x-x-x-x-x-x-x-x-x-x-x-x-x-x--|
1212121212121212121212121212121212121212121212121212121212121212--|
------------------------------------------------------------------|


1
-----------------------------------------------------------------|
-----------------------------------------------------------------|
------------------_______________--------------------------------|
------------------)| | | | | | |(--------------------------------|
-5-5-5-5-5-5-5-5-5-5-5-5-5-5-5-5-5-5-5-5-5-5-5-5-5-5-5-5-5-5-5-5-|
-----------------------------------------------------------------|

2
------------------_______________---------------------------------|
------------------)| | | | | | |(---------------------------------|
1414141414141414141414141414141414141414141414141414141414141414--|
-x-x-x-x-x-x-x-x-x-x-x-x-x-x-x-x-x-x-x-x-x-x-x-x-x-x-x-x-x-x-x-x--|
1212121212121212121212121212121212121212121212121212121212121212--|
------------------------------------------------------------------|



1
-----------------------------------------------------------------|
-----------------------------------------------------------------|
------------------_______________--------------------------------|
------------------)| | | | | | |(--------------------------------|
-5-5-5-5-5-5-5-5-5-5-5-5-5-5-5-5-5-5-5-5-5-5-5-5-5-5-5-5-5-5-5-5-|
-----------------------------------------------------------------|

2
------------------_______________---------------------------------|
------------------)| | | | | | |(---------------------------------|
1414141414141414141414141414141414141414141414141414141414141414--|
-x-x-x-x-x-x-x-x-x-x-x-x-x-x-x-x-x-x-x-x-x-x-x-x-x-x-x-x-x-x-x-x--|
1212121212121212121212121212121212121212121212121212121212121212--|
------------------------------------------------------------------|



1
-----------------------------------------------------------------|
-----------------------------------------------------------------|
------------------_______________--------------------------------|
------------------)| | | | | | |(--------------------------------|
-5-5-5-5-5-5-5-5-5-5-5-5-5-5-5-5-5-5-5-5-5-5-5-5-5-5-5-5-5-5-5-5-|
-----------------------------------------------------------------|

2
------------------_______________---------------------------------|
------------------)| | | | | | |(---------------------------------|
1414141414141414141414141414141414141414141414141414141414141414--|
-x-x-x-x-x-x-x-x-x-x-x-x-x-x-x-x-x-x-x-x-x-x-x-x-x-x-x-x-x-x-x-x--|
1212121212121212121212121212121212121212121212121212121212121212--|
------------------------------------------------------------------|






0:58


----------------------------------------------------|
----------------------------------------------------|
----------------------------------------------------|
---------------)(----------------------)(-----------|
-----------3-----------------------3----------------|
-7----1-------------4----7----1-------------4-------|





1
-----------------------------------------------------------------|
-----------------------------------------------------------------|
------------------_______________--------------------------------|
------------------)| | | | | | |(--------------------------------|
-5-5-5-5-5-5-5-5-5-5-5-5-5-5-5-5-5-5-5-5-5-5-5-5-5-5-5-5-5-5-5-5-|
-----------------------------------------------------------------|

2
------------------_______________---------------------------------|
------------------)| | | | | | |(---------------------------------|
1414141414141414141414141414141414141414141414141414141414141414--|
-x-x-x-x-x-x-x-x-x-x-x-x-x-x-x-x-x-x-x-x-x-x-x-x-x-x-x-x-x-x-x-x--|
1212121212121212121212121212121212121212121212121212121212121212--|
------------------------------------------------------------------|



1
-----------------------------------------------------------------|
-----------------------------------------------------------------|
------------------_______________--------------------------------|
------------------)| | | | | | |(--------------------------------|
-5-5-5-5-5-5-5-5-5-5-5-5-5-5-5-5-5-5-5-5-5-5-5-5-5-5-5-5-5-5-5-5-|
-----------------------------------------------------------------|

2
------------------_______________---------------------------------|
------------------)| | | | | | |(---------------------------------|
1414141414141414141414141414141414141414141414141414141414141414--|
-x-x-x-x-x-x-x-x-x-x-x-x-x-x-x-x-x-x-x-x-x-x-x-x-x-x-x-x-x-x-x-x--|
1212121212121212121212121212121212121212121212121212121212121212--|
------------------------------------------------------------------|





1:14


R
-----------------------------------------------------------------|
-----------------------------------------------------------------|
------------------_______________--------------------------------|
------------------)| | | | | | |(--------------------------------|
-5-5-5-5-5-5-5-5-5-5-5-5-5-5-5-5-5-5-5-5-5-5-5-5-5-5-5-5-5-5-5-5-|
-----------------------------------------------------------------|


-----------------------------------------------------------------|
-----------------------------------------------------------------|
------------------_______________--------------------------------|
------------------)| | | | | | |(--------------------------------|
-5-5-5-5-5-5-5-5-5-5-5-5-5-5-5-5-5-5-5-5-5-5-5-5-5-5-5-5-5-5-5-5-|
-----------------------------------------------------------------|


-----------------------------------------------------------------|
-----------------------------------------------------------------|
------------------_______________--------------------------------|
------------------)| | | | | | |(--------------------------------|
-5-5-5-5-5-5-5-5-5-5-5-5-5-5-5-5-5-5-5-5-5-5-5-5-5-5-5-5-5-5-5-5-|
-----------------------------------------------------------------|


-----------------------------------------------------------------|
-----------------------------------------------------------------|
------------------_______________--------------------------------|
------------------)| | | | | | |(--------------------------------|
-5-5-5-5-5-5-5-5-5-5-5-5-5-5-5-5-5-5-5-5-5-5-5-5-5-5-5-5-5-5-5-5-|
-----------------------------------------------------------------|

FILL
--------------------------------------17-13-15-13----------)    (--|
--------------------------------------------------17-15------------|
-------------------------------------------------------------------|
-------------------------------------------------------------------|
-------------------------------------------------------------------|
-------------------------------------------------------------------|



1:30


1
-----------------------------------------------------------------|
-----------------------------------------------------------------|
------------------_______________--------------------------------|
------------------)| | | | | | |(--------------------------------|
-5-5-5-5-5-5-5-5-5-5-5-5-5-5-5-5-5-5-5-5-5-5-5-5-5-5-5-5-5-5-5-5-|
-----------------------------------------------------------------|

2
------------------_______________---------------------------------|
------------------)| | | | | | |(---------------------------------|
1414141414141414141414141414141414141414141414141414141414141414--|
-x-x-x-x-x-x-x-x-x-x-x-x-x-x-x-x-x-x-x-x-x-x-x-x-x-x-x-x-x-x-x-x--|
1212121212121212121212121212121212121212121212121212121212121212--|
------------------------------------------------------------------|



1
-----------------------------------------------------------------|
-----------------------------------------------------------------|
------------------_______________--------------------------------|
------------------)| | | | | | |(--------------------------------|
-5-5-5-5-5-5-5-5-5-5-5-5-5-5-5-5-5-5-5-5-5-5-5-5-5-5-5-5-5-5-5-5-|
-----------------------------------------------------------------|

2
------------------_______________---------------------------------|
------------------)| | | | | | |(---------------------------------|
1414141414141414141414141414141414141414141414141414141414141414--|
-x-x-x-x-x-x-x-x-x-x-x-x-x-x-x-x-x-x-x-x-x-x-x-x-x-x-x-x-x-x-x-x--|
1212121212121212121212121212121212121212121212121212121212121212--|
------------------------------------------------------------------|



1
-----------------------------------------------------------------|
-----------------------------------------------------------------|
------------------_______________--------------------------------|
------------------)| | | | | | |(--------------------------------|
-5-5-5-5-5-5-5-5-5-5-5-5-5-5-5-5-5-5-5-5-5-5-5-5-5-5-5-5-5-5-5-5-|
-----------------------------------------------------------------|

2
------------------_______________---------------------------------|
------------------)| | | | | | |(---------------------------------|
1414141414141414141414141414141414141414141414141414141414141414--|
-x-x-x-x-x-x-x-x-x-x-x-x-x-x-x-x-x-x-x-x-x-x-x-x-x-x-x-x-x-x-x-x--|
1212121212121212121212121212121212121212121212121212121212121212--|
------------------------------------------------------------------|




1
-----------------------------------------------------------------|
-----------------------------------------------------------------|
------------------_______________--------------------------------|
------------------)| | | | | | |(--------------------------------|
-5-5-5-5-5-5-5-5-5-5-5-5-5-5-5-5-5-5-5-5-5-5-5-5-5-5-5-5-5-5-5-5-|
-----------------------------------------------------------------|

2
------------------_______________---------------------------------|
------------------)| | | | | | |(---------------------------------|
1414141414141414141414141414141414141414141414141414141414141414--|
-x-x-x-x-x-x-x-x-x-x-x-x-x-x-x-x-x-x-x-x-x-x-x-x-x-x-x-x-x-x-x-x--|
1212121212121212121212121212121212121212121212121212121212121212--|
------------------------------------------------------------------|









1:47


----------------------------------------------------|
----------------------------------------------------|
----------------------------------------------------|
---------------)(----------------------)(-----------|
-----------3-----------------------3----------------|
-7----1-------------4----7----1-------------4-------|



----------------------------------------------------|
----------------------------------------------------|
----------------------------------------------------|
---------------)(----------------------)(-----------|
-----------3-----------------------3----------------|
-7----1-------------4----7----1-------------4-------|







2:04


-------------------0--------------------------0----------|
-----------------6---6---6------------------6---6---6----|
---------------7-------7------------------7-------7------|
---------------------------------------------------------|
-0----3----0----------------0----3----0------------------|
-0----3----0----------------0----3----0------------------|


-------------------0--------------------------0----------|
-----------------6---6---6------------------6---6--------|
---------------7-------7------------------7-------7------|
---------------------------------------------------------|
-0----3----0----------------0----3----0------------------|
-0----3----0----------------0----3----0------------------|






2:21


L
-///---///---///-------///---///--///--------///--///----///-------///---///---///-|
-10----15----13--------10----15----13--------10----15----13--------10----15----13--|
-----------------------------------------------------------------------------------|
-----------------------------------------------------------------------------------|
-----------------------------------------------------------------------------------|
-----------------------------------------------------------------------------------|

R
-------------------------------------------------------------------------------|
-------------------------------------------------------------------------------|
///---///--///-------///---///---///------///--///---///-------///---///---///-|
-7----12----10--------7----12----10--------7----12----10--------7----12----10--|
-------------------------------------------------------------------------------|
-------------------------------------------------------------------------------|





2:37



----------------------------------------------------|
----------------------------------------------------|
----------------------------------------------------|
---------------)(----------------------)(-----------|
-----------3-----------------------3----------------|
-7----1-------------4----7----1-------------6-------|



----------------------------------------------------|
----------------------------------------------------|
----------------------------------------------------|
---------------)(----------------------)(-----------|
-----------3-----------------------3----------------|
-7----1-------------4----7----1-------------6-------|





2:54

----------------------------------------------------|
----------------------------------------------------|
----------------------------------------------------|
---___---------------------------___-------4--------|
--/   \-------------------------/   \------2-4---1--|
-6-7-6-0-6-1-1-0-0-3-3-0-0-1-1-6-7-6-0-6-1---4-0-1--|
           * * * * * * * * * * 


----------------------------------------------------|
----------------------------------------------------|
----------------------------------------------------|
---___---------------------------___-------4--------|
--/   \-------------------------/   \------2-4---1--|
-6-7-6-0-6-1-1-0-0-3-3-0-0-1-1-6-7-6-0-6-1---4-0-1--|
           * * * * * * * * * * 

----------------------------------------------------|
----------------------------------------------------|
----------------------------------------------------|
---___---------------------------___-------4--------|
--/   \-------------------------/   \------2-4---1--|
-6-7-6-0-6-1-1-0-0-3-3-0-0-1-1-6-7-6-0-6-1---4-0-1--|
           * * * * * * * * * * 

-----------------------------------------------------------|
-----------------------------------------------------------|
-----------------------------------------------------------|
---___---------------------------___-----------------------|
--/   \-------------------------/   \----------------------|
-6-7-6-0-6-0-0-1-1-1-1-1-1-1-1-6-7-6-0-0-0-1-1-1-1-1-1-1-1-|
           * * * * * * * * * *         * * * * * * * * * *  






3:11


-------------------0--------------------------0----------|
-----------------6---6---6------------------6---6---6----|
---------------7-------7------------------7-------7------|
---------------------------------------------------------|
-0----3----0----------------0----3----0------------------|
-0----3----0----------------0----3----0------------------|


-------------------0--------------------------0----------|
-----------------6---6---6------------------6---6---6----|
---------------7-------7------------------7-------7------|
---------------------------------------------------------|
-0----3----0----------------0----3----0------------------|
-0----3----0----------------0----3----0------------------|







3:28


L
-///---///---///-------///---///--///--------///--///----///-------///---///---///-|
-10----15----13--------10----15----13--------10----15----13--------10----15----13--|
-----------------------------------------------------------------------------------|
-----------------------------------------------------------------------------------|
-----------------------------------------------------------------------------------|
-----------------------------------------------------------------------------------|

R
-------------------------------------------------------------------------------|
-------------------------------------------------------------------------------|
///---///--///-------///---///---///------///--///---///-------///---///---///-|
-7----12----10--------7----12----10--------7----12----10--------7----12----10--|
-------------------------------------------------------------------------------|
-------------------------------------------------------------------------------|






----------------------------------------------------|
----------------------------------------------------|
----------------------------------------------------|
---------------)(----------------------)(-----------|
-----------3-----------------------3----------------|
-7----1-------------4----7----1-------------4-------|



---------------------------------------------------------------------|
---------------------------------------------------------------------|
---------------------------------------------17-17-17-17-17-17-17-17-|
---------------)(----------------------)(-----X--X--X--X--X--X--X--X-|
-----------3-----------------------3-------/-15-15-15-15-15-15-15-15-|
-7----1-------------4----7----1--------------------------------------|






4:01


1
-----------------------------------------------------------------|
-----------------------------------------------------------------|
------------------_______________--------------------------------|
------------------)| | | | | | |(--------------------------------|
-5-5-5-5-5-5-5-5-5-5-5-5-5-5-5-5-5-5-5-5-5-5-5-5-5-5-5-5-5-5-5-5-|
-----------------------------------------------------------------|

2
------------------_______________---------------------------------|
------------------)| | | | | | |(---------------------------------|
1414141414141414141414141414141414141414141414141414141414141414--|
-x-x-x-x-x-x-x-x-x-x-x-x-x-x-x-x-x-x-x-x-x-x-x-x-x-x-x-x-x-x-x-x--|
1212121212121212121212121212121212121212121212121212121212121212--|
------------------------------------------------------------------|


1
-----------------------------------------------------------------|
-----------------------------------------------------------------|
------------------_______________--------------------------------|
------------------)| | | | | | |(--------------------------------|
-5-5-5-5-5-5-5-5-5-5-5-5-5-5-5-5-5-5-5-5-5-5-5-5-5-5-5-5-5-5-5-5-|
-----------------------------------------------------------------|

2
------------------_______________---------------------------------|
------------------)| | | | | | |(---------------------------------|
1414141414141414141414141414141414141414141414141414141414141414--|
-x-x-x-x-x-x-x-x-x-x-x-x-x-x-x-x-x-x-x-x-x-x-x-x-x-x-x-x-x-x-x-x--|
1212121212121212121212121212121212121212121212121212121212121212--|
------------------------------------------------------------------|


1
-----------------------------------------------------------------|
-----------------------------------------------------------------|
------------------_______________--------------------------------|
------------------)| | | | | | |(--------------------------------|
-5-5-5-5-5-5-5-5-5-5-5-5-5-5-5-5-5-5-5-5-5-5-5-5-5-5-5-5-5-5-5-5-|
-----------------------------------------------------------------|

2
------------------_______________---------------------------------|
------------------)| | | | | | |(---------------------------------|
1414141414141414141414141414141414141414141414141414141414141414--|
-x-x-x-x-x-x-x-x-x-x-x-x-x-x-x-x-x-x-x-x-x-x-x-x-x-x-x-x-x-x-x-x--|
1212121212121212121212121212121212121212121212121212121212121212--|
------------------------------------------------------------------|


1
-----------------------------------------------------------------|
-----------------------------------------------------------------|
------------------_______________--------------------------------|
------------------)| | | | | | |(--------------------------------|
-5-5-5-5-5-5-5-5-5-5-5-5-5-5-5-5-5-5-5-5-5-5-5-5-5-5-5-5-5-5-5-5-|
-----------------------------------------------------------------|

2
------------------_______________---------------------------------|
------------------)| | | | | | |(---------------------------------|
1414141414141414141414141414141414141414141414141414141414141414--|
-x-x-x-x-x-x-x-x-x-x-x-x-x-x-x-x-x-x-x-x-x-x-x-x-x-x-x-x-x-x-x-x--|
1212121212121212121212121212121212121212121212121212121212121212--|
------------------------------------------------------------------|




4:18

1
-----------------------------------------------------------------|
-----------------------------------------------------------------|
------------------_______________--------------------------------|
------------------)| | | | | | |(--------------------------------|
-5-5-5-5-5-5-5-5-5-5-5-5-5-5-5-5-5-5-5-5-5-5-5-5-5-5-5-5-5-5-5-5-|
-----------------------------------------------------------------|

2
------------------_______________---------------------------------|
------------------)| | | | | | |(---------------------------------|
1414141414141414141414141414141414141414141414141414141414141414--|
-x-x-x-x-x-x-x-x-x-x-x-x-x-x-x-x-x-x-x-x-x-x-x-x-x-x-x-x-x-x-x-x--|
1212121212121212121212121212121212121212121212121212121212121212--|
------------------------------------------------------------------|



1
-----------------------------------------------------------------|
-----------------------------------------------------------------|
------------------_______________--------------------------------|
------------------)| | | | | | |(--------------------------------|
-5-5-5-5-5-5-5-5-5-5-5-5-5-5-5-5-5-5-5-5-5-5-5-5-5-5-5-5-5-5-5-5-|
-----------------------------------------------------------------|

2
------------------_______________---------------------------------|
------------------)| | | | | | |(---------------------------------|
1414141414141414141414141414141414141414141414141414141414141414--|
-x-x-x-x-x-x-x-x-x-x-x-x-x-x-x-x-x-x-x-x-x-x-x-x-x-x-x-x-x-x-x-x--|
1212121212121212121212121212121212121212121212121212121212121212--|
------------------------------------------------------------------|




1
-----------------------------------------------------------------|
-----------------------------------------------------------------|
------------------_______________--------------------------------|
------------------)| | | | | | |(--------------------------------|
-5-5-5-5-5-5-5-5-5-5-5-5-5-5-5-5-5-5-5-5-5-5-5-5-5-5-5-5-5-5-5-5-|
-----------------------------------------------------------------|

2
------------------_______________---------------------------------|
------------------)| | | | | | |(---------------------------------|
1414141414141414141414141414141414141414141414141414141414141414--|
-x-x-x-x-x-x-x-x-x-x-x-x-x-x-x-x-x-x-x-x-x-x-x-x-x-x-x-x-x-x-x-x--|
1212121212121212121212121212121212121212121212121212121212121212--|
------------------------------------------------------------------|



1
-----------------------------------------------------------------|
-----------------------------------------------------------------|
------------------_______________--------------------------------|
------------------)| | | | | | |(--------------------------------|
-5-5-5-5-5-5-5-5-5-5-5-5-5-5-5-5-5-5-5-5-5-5-5-5-5-5-5-5-5-5-5-5-|
-----------------------------------------------------------------|

2
------------------_______________---------------------------------|
------------------)| | | | | | |(---------------------------------|
1414141414141414141414141414141414141414141414141414141414141414--|
-x-x-x-x-x-x-x-x-x-x-x-x-x-x-x-x-x-x-x-x-x-x-x-x-x-x-x-x-x-x-x-x--|
1212121212121212121212121212121212121212121212121212121212121212--|
------------------------------------------------------------------|



1
-----------------------------------------------------------------|
-----------------------------------------------------------------|
------------------_______________--------------------------------|
------------------)| | | | | | |(--------------------------------|
-5-5-5-5-5-5-5-5-5-5-5-5-5-5-5-5-5-5-5-5-5-5-5-5-5-5-5-5-5-5-5-5-|
-----------------------------------------------------------------|

2
------------------_______________---------------------------------|
------------------)| | | | | | |(---------------------------------|
1414141414141414141414141414141414141414141414141414141414141414--|
-x-x-x-x-x-x-x-x-x-x-x-x-x-x-x-x-x-x-x-x-x-x-x-x-x-x-x-x-x-x-x-x--|
1212121212121212121212121212121212121212121212121212121212121212--|
------------------------------------------------------------------|



1
-----------------------------------------------------------------|
-----------------------------------------------------------------|
------------------_______________--------------------------------|
------------------)| | | | | | |(--------------------------------|
-5-5-5-5-5-5-5-5-5-5-5-5-5-5-5-5-5-5-5-5-5-5-5-5-5-5-5-5-5-5-5-5-|
-----------------------------------------------------------------|

2
------------------_______________---------------------------------|
------------------)| | | | | | |(---------------------------------|
1414141414141414141414141414141414141414141414141414141414141414--|
-x-x-x-x-x-x-x-x-x-x-x-x-x-x-x-x-x-x-x-x-x-x-x-x-x-x-x-x-x-x-x-x--|
1212121212121212121212121212121212121212121212121212121212121212--|
------------------------------------------------------------------|


                                                 X4
---------------------17-13-15-13--------)   (--------------------|
---------------------------------17-15---------------------------|
-----------------------------------------------------------------|
-----------------------------------------------------------------|
-----------------------------------------------------------------|
-0---------------------------------------------------------------|    

Added On October 16th, 2014

SHARE

Comments

blog comments powered by Disqus

ADVERTISEMENT