Slipknot Tabs

Til We Die

1 versions

TAB

            This is my first tab so be nice!! if u have any edits of ur own e-mail me at Broli@hotmail.co.uk

Intro:
e|---------------------------------| (x4)
B|---------------------------------|
G|---------------------------------|
D|---4~-9-7-6-7-6-4-2~-22----------|
A|---------------------------------|
D|---------------------------------|

Chorus:
e|---------------------------------| (x4)
B|---------------------------------|
G|---------------------------------|
D|---4~-9-7-6-7-6-4-2~-22----------|
A|---4~-9-7-6-7-6-4-2~-22----------|
D|---4~-9-7-6-7-6-4-2~-22----------|

Verse:
e|------------------------------------|---------------------------------------| (x4)
B|------------------------------------|---------------------------------------|
G|------------------------------------|---------------------------------------|
D|-----4444---4444---4444---4444------|-----2222---2222---2222---2222---------|
A|-----4444---4444---4444---4444------|-----2222---2222---2222---2222---------|
D|---4------4------4------4-----------|---2------2------2------2--------------|

Chorus:
e|---------------------------------| (x2)
B|---------------------------------|
G|---------------------------------|
D|---4~-9-7-6-7-6-4-2~-22----------|
A|---4~-9-7-6-7-6-4-2~-22----------|
D|---4~-9-7-6-7-6-4-2~-22----------|

Verse:
e|------------------------------------|---------------------------------------| (x4)
B|------------------------------------|---------------------------------------|
G|------------------------------------|---------------------------------------|
D|-----4444---4444---4444---4444------|-----2222---2222---2222---2222---------|
A|-----4444---4444---4444---4444------|-----2222---2222---2222---2222---------|
D|---4------4------4------4-----------|---2------2------2------2--------------|

Chorus:
e|---------------------------------| (x4)
B|---------------------------------|
G|---------------------------------|
D|---4~-9-7-6-7-6-4-2~-22----------|
A|---4~-9-7-6-7-6-4-2~-22----------|
D|---4~-9-7-6-7-6-4-2~-22----------|

Bridge:
e|------------------------------| (x2)
B|------------------------------|
G|------------------------------|
D|-11111111111111111111v11v11v--| (11's not 1's)
A|------------------------------|
D|------------------------------|

Chorus:
e|---------------------------------| (x2)
B|---------------------------------|
G|---------------------------------|
D|---4~-9-7-6-7-6-4-2~-22----------|
A|---4~-9-7-6-7-6-4-2~-22----------|
D|---4~-9-7-6-7-6-4-2~-22----------|

Verse:
e|------------------------------------|---------------------------------------| (x2)
B|------------------------------------|---------------------------------------|
G|------------------------------------|---------------------------------------|
D|-----4444---4444---4444---4444------|-----2222---2222---2222---2222---------|
A|-----4444---4444---4444---4444------|-----2222---2222---2222---2222---------|
D|---4------4------4------4-----------|---2------2------2------2--------------|

Chorus:
e|---------------------------------| (x6)
B|---------------------------------|
G|---------------------------------|
D|---4~-9-7-6-7-6-4-2~-22----------|
A|---4~-9-7-6-7-6-4-2~-22----------|
D|---4~-9-7-6-7-6-4-2~-22----------|

Solo: (Only figured the end break down, if u figure out the rest let me know)
e|------------------------------|
B|------------------------------|
G|---9-7-6-7-6-5-6-5-3-2~-------|
D|------------------------------|
A|------------------------------|
D|------------------------------|

Chorus:
e|---------------------------------| (Till End)
B|---------------------------------|
G|---------------------------------|
D|---4~-9-7-6-7-6-4-2~-22----------|
A|---4~-9-7-6-7-6-4-2~-22----------|
D|---4~-9-7-6-7-6-4-2~-22----------|    

Added On December 16th, 2013

SHARE

Comments

blog comments powered by Disqus

ADVERTISEMENT