Slipknot Tabs

Vermillion

2 versions

TAB

            Artist: Slipknot
Song: Vermillion
Tabbed by: Miguel Rodriguez

tuning: EADGBE, or you can do C# tuning, both sound equally as good.


Intro:

E |--------------------14----------13-----------------|
B |-------11-----13-----------------------------------|
G |---------------------------------------------------|
D |---------------------------------------------------|
A |---------------------------------------------------|
E |---------------------------------------------------|

Verse 1:

E |---------------------------------------------------|
B |---------------------------------------------------|
G |---------------------------------------------------|
D |---4-x-x--6-x-x-7-x-x-6-x-x-x----------------------|
A |---2-x-x--4-x-x-5-x-x-4-x-x-x----------------------|
E |---------------------------------------------------|


E |---------------------------------------------------|
B |---------------------------------------------------|
G |---------------------------------------------------|
D |---------------------------------------------------|
A |-2-2-2--0-0-0-0--5h8-8-8--3-3-3-3------------------|
E |---------------------------------------------------|
 Pm        . . . .

Verse Ending

E |---------------------------------------------------|
B |---------------------------------------------------|
G |---------------------------------------------------|
D |-------3-3-3--5-5-5h7-7-7--8b----------------------|
A |---5-----------------------------------------------|
E |---------------------------------------------------|

Pre-Chorus
      (  She Is Everything And More)                 (The solemn Hypnotic)
E |-----------------------------------------------------------------------|
B |-----------------------------------------------------------------------|
G |-----------------------------------------------------------------------|
D |--2p1-1-1--4p3-3-3--3p2-2-2--2p1-1-1--3-3-3--0-0-0-0-0-----------------|
A |--2p1-1-1--4p3-3-3--3p2-2-2--2p1-1-1--3-3-3--0-0-0-0-0-5h8-8-8-3-3-3-3-|
E |--2p1-1-1--4p3-3-3--3p2-2-2--2p1-1-1--3-3-3--0-0-0-0-0-----------------|
 Pm  . . . .  . . . .  . . . .  . . . .  . . .  . . . . .

Pre-Chorus Ending

E |--------------------------------|
B |--------------------------------|
G |--------------------------------|
D |-----3-3-3--5-5-5h7--8----------|
A |--5-----------------------------|
E |--------------------------------|

Chorus
  OOh, She's The Only One That Makes Me)
E |---|-------------------------------------------------------|
B |---|-------------------------------------------------------|
G |---|-------------------------------------------------------|
D |-8-|---0-0-0--1-1-1--0-0-0--6-6-6--5-5-5-5-----------------|
A |-8-|---0-0-0--1-1-1--0-0-0--6-6-6--5-5-5-5-----------------|
E |-8-|---0-0-0--1-1-1--0-0-0--6-6-6--5-5-5-5-----------------|
 Pm       . . .  . . .  . . .  . . .  . . . .
   (Hard To Say What, Caught My Attention)
E |------------------------------------------------------------|
B |------------------------------------------------------------|
G |------------------------------------------------------------|
D |--12p11--0-0-0-0--12p11--0-0-0-0--4p3-0-0-0-0--8p7-0-0-0-0--|
A |--12p11--0-0-0-0--12p11--0-0-0-0--4p3-0-0-0-0--8p7-0-0-0-0--|
E |--12p11--0-0-0-0--12p11--0-0-0-0--4p3-0-0-0-0--8p7-0-0-0-0--|
 Pm         . . . .         . . . .      . . . .      . . . .
Refrain
( She Isn't Real)
     Tremelo Picking, don't try to pick it like a chord, that's psychotic
E |------------------------------------------------------------------------|
B |------------------------------------------------------------------------|
G |-55555--88888--1313131313--99999--1313131313--99999--77777--55555--9----|
D |-xxxxx--xxxxx--xxxxxxxxxx--xxxxx--xxxxxxxxxx--xxxxx--xxxxx--xxxxx--x----|
A |-33333--66666--1111111111--77777--1111111111--77777--55555--33333--7----|
E |------------------------------------------------------------------------|

Last Refrain Ending

E |--------------------|
B |--------------------|
G |-55555--9--7--3-----|
D |-xxxxx--x--x--x-----|
A |-33333--7--5--1-----|

This is my first tab posted, it's not the best but it's damn close, there'll be more 
to come starting with Empty walls, by Serj Tankian
 Listen to the song, all parts are here except the solo, I'm working on it, I'll post it 
it's finished, If you can please rate, any questions or comments, email me at
slipnot606@yahoo.com    

Added On December 16th, 2013

SHARE

Comments

blog comments powered by Disqus

VERSIONS

ADVERTISEMENT