Slipknot Tabs

Vermillion Part 2

1 versions

TAB

            Artist: Slipknot
Title: Vermillion Pt.2
Tuning: Two Steps Down Drop D (E,A,D,G,B,E)->(B,F#,B,E,G#,C#)
Tabbed By: Tony Goodwin

(Every time I look up this tab there are never any good ones, so I decided to tab it out
I’m guessing the tuning is right since most of their other stuff is tuned the same. I’m
sure I got all the right notes, I’m just not so sure about the strumming I tabbed out so 
play along with the song and you’ll get it. P.S. - I wrote the lyrics out just to
you what part to play when, so I have no clue whether they’re right or not.)

 Gtr.1
|-------------------------------------------------------|
|-------------------------------------------------------|(not sure
|-------------------------------------------------------|if the
|-9991111119-9-9-99999-99-0-000-0-000-4p2p0-000-2-000-4-|end part’s
|-9999-9-9-10101099991097-0-000-0-000-2p2p0-000-2-000-2-|strumming
|-9999-9-9-9-9-9-99999-99-0-000-0-000-0-----000-0-000-0-|is right)
| ^v^v ^ v ^ v ^ v^v^v ^v ^ v^v ^ v^v ^     v^v ^ v^v ^ |
|       (these are up-strokes and down-strokes)         |
|Gtr.2 (not sure if there’s some effect going on here)  |
|-------------------------------------------------------|
|-------------------------------------------------------|
|-4--6--------------------------------------------------|
|----------5----(p4)------------------------------------|
|-------------------------------------------------------|
|-------------------------------------------------------|

|-------------------------------------------------------|
|-------------------------------------------------------|
|-------------------------------------------------------|
|-9991111119-9-9-99999-99-0-000-0-000-4p2p0-000-2-000-4-|
|-9999-9-9-10101099991097-0-000-0-000-2p2p0-000-2-000-2-|
|-9999-9-9-9-9-9-99999-99-0-000-0-000-0-----000-0-000-0-|
|                                                       |
|-------------------------------------------------------|
|-------------------------------------------------------|
|-4--6--------------------------------------------------|
|----------5----(p4)------------------------------------|
|-------------------------------------------------------|
|-------------------------------------------------------|

|-------------------------------------------------------|
|-------------------------------------------------------|
|-------------------------------------------------------|
|-9991111119-9-9-99999-99-0-000-0-000-4p2p0-000-2-000-4-|
|-9999-9-9-10101099991097-0-000-0-000-2p2p0-000-2-000-2-|
|-9999-9-9-9-9-9-99999-99-0-000-0-000-0-----000-0-000-0-|
|                                                       |
|-------------------------------------------------------|
|-------------------------------------------------------|
|-4--6--------------------------------------------------|
|----------5----(p4)------------------------------------|
|-------------------------------------------------------|
|-------------------------------------------------------|
“She seemed dressed in all of me. Stretched across my shame.”

|-------------------------------------------------------|
|-------------------------------------------------------|
|-------------------------------------------------------|
|-9991111119-9-9-99999-99-0-000-0-000-4p2p0-000-2-000-4-|
|-9999-9-9-10101099991097-0-000-0-000-2p2p0-000-2-000-2-|
|-9999-9-9-9-9-9-99999-99-0-000-0-000-0-----000-0-000-0-|
|                                                       |
|-------------------------------------------------------|
|-------------------------------------------------------|
|-4--6--------------------------------------------------|
|----------5----(p4)------------------------------------|
|-------------------------------------------------------|
|-------------------------------------------------------|
“All the torment and the pain. Leaked through and covered me.”

|-------------------------------------------------------|
|-------------------------------------------------------|
|-------------------------------------------------------|
|-9991111119-9-9-99999-99-0-000-0-000-4p2p0-000-2-000-4-|
|-9999-9-9-10101099991097-0-000-0-000-2p2p0-000-2-000-2-|
|-9999-9-9-9-9-9-99999-99-0-000-0-000-0-----000-0-000-0-|
|                                                       |
|-------------------------------------------------------|
|-------------------------------------------------------|
|-4--6--------------------------------------------------|
|----------5----(p4)------------------------------------|
|-------------------------------------------------------|
|-------------------------------------------------------|
“I’d do anything to have her to myself. Just to have her for myself.”

|-------------------------------------------------------|
|-------------------------------------------------------|
|-------------------------------------------------------|
|-9991111119-9-9-99999-99-0-000-0-000-4p2p0-000-2-000-4-|
|-9999-9-9-10101099991097-0-000-0-000-2p2p0-000-2-000-2-|
|-9999-9-9-9-9-9-99999-99-0-000-0-000-0-----000-0-000-0-|
|                                                       |
|-------------------------------------------------------|
|-------------------------------------------------------|
|-4--6--------------------------------------------------|
|----------5----(p4)------------------------------------|
|-------------------------------------------------------|
|-------------------------------------------------------|
“Now I don’t know what to do. I don’t know what to...”

|-----------------------------------------------------------------|
|-----------------------------------------------------------------|
|-----------------------------------------------------------------|
|-10-101010-10-101010-10-101010-10-101010-0-000-0-000-0-000-0-000-|
|-10-101010-10-101010-10-101010-10-101010-0-000-0-000-0-000-0-000-|
|-10-101010-10-101010-10-101010-10-101010-0-000-0-000-0-000-0-000-|
|                                                                 |
|-----------------------------------------------------------------|
|-----------------------------------------------------------------|
|-----------------------------------------------------------------|
|-----------------------------------------------------0-----------|
|-----------------------------------------------------0-----------|
|-----------------------------------------------------0-----------|
“Doooooooooooooooooooo. When she makes me sing.”

|-------------------------------------------------------|
|-------------------------------------------------------|
|-------------------------------------------------------|
|-9991111119-9-9-99999-99-0-000-0-000-4p2p0-000-2-000-4-|
|-9999-9-9-10101099991097-0-000-0-000-2p2p0-000-2-000-2-|
|-9999-9-9-9-9-9-99999-99-0-000-0-000-0-----000-0-000-0-|
|                                                       |
|-------------------------------------------------------|
|-------------------------------------------------------|
|-------------------------------------------------------|
|-------------------------------------------------------|
|-------------------------------------------------------|
|-9-----------------------0-----------------------------|
“She is everything to me. The unrequited dream.”

|-------------------------------------------------------|
|-------------------------------------------------------|
|-------------------------------------------------------|
|-9991111119-9-9-99999-99-0-000-0-000-4p2p0-000-2-000-4-|
|-9999-9-9-10101099991097-0-000-0-000-2p2p0-000-2-000-2-|
|-9999-9-9-9-9-9-99999-99-0-000-0-000-0-----000-0-000-0-|
|                                                       |
|-------------------------------------------------------|
|-------------------------------------------------------|
|-4--6--------------------------------------------------|
|----------5----(p4)------------------------------------|
|-2-----------------------------------------------------|
|-------------------------0-----------------------------|
“A song that no one sings. The unattainable.”

|-------------------------------------------------------|
|-------------------------------------------------------|
|-------------------------------------------------------|
|-9991111119-9-9-99999-99-0-000-0-000-4p2p0-000-2-000-4-|
|-9999-9-9-10101099991097-0-000-0-000-2p2p0-000-2-000-2-|
|-9999-9-9-9-9-9-99999-99-0-000-0-000-0-----000-0-000-0-|
|                                                       |
|-------------------------------------------------------|
|-------------------------------------------------------|
|-4--6--------------------------------------------------|
|----------5----(p4)------------------------------------|
|-------------------------------------------------------|
|-------------------------0-----------------------------|
“She’s a myth that I have you believe in. All I need to make it real is one more reason.”

|-------------------------------------------------------|
|-------------------------------------------------------|
|-------------------------------------------------------|
|-9991111119-9-9-99999-99-0-000-0-000-4p2p0-000-2-000-4-|
|-9999-9-9-10101099991097-0-000-0-000-2p2p0-000-2-000-2-|
|-9999-9-9-9-9-9-99999-99-0-000-0-000-0-----000-0-000-0-|
|                                                       |
|-------------------------------------------------------|
|-------------------------------------------------------|
|-4--6--------------------------------------------------|
|----------5----(p4)------------------------------------|
|-------------------------------------------------------|
|-------------------------0-----------------------------|
“I don’t know what to do. I don’t know what to...”

|-----------------------------------------------------------------|
|-----------------------------------------------------------------|
|-----------------------------------------------------------------|
|-10-101010-10-101010-10-101010-10-101010-0-000-0-000-0-000-0-000-|
|-10-101010-10-101010-10-101010-10-101010-0-000-0-000-0-000-0-000-|
|-10-101010-10-101010-10-101010-10-101010-0-000-0-000-0-000-0-000-|
|                                                                 |
|-----------------------------------------------------------------|
|-----------------------------------------------------------------|
|-----------------------------------------------------------------|
|-----------------------------------------------------0-----------|
|-----------------------------------------------------0-----------|
|-----------------------------------------------------0-----------|
“Doooooooooooooooooooo. When she makes me sing.”

 (I’m only 75% sure on this part)
||--------0---------0---------0---------0----||
||o---6-----6---6-----6---6-----6---6-----6-o||
||------7---------7---------7---------7------|| [3x]
||-------------------------------------------||
||o-8---------7---------5---------7---------o||
||-------------------------------------------||
|(listen to get Gtr.2 timing right)    |
|------------|------------|------------|
|------------|------------|------------|
|-10-9-7-----|-10-9-15-14-|-14-14-14---|
|------------|------------|------------|
|------------|------------|------------|
|------------|------------|------------|
“But I won’t let this build up inside of me.
I won’t let this build up inside of me.
I won’t let this build up inside of me.”

|-------0---------0------------------------------------------|
|---6-----6---6-----6----------------------------------------|
|-----7---------7-----7-777-7-9-10-----------------7-777-767-|
|---------------------7-777-7-9-10-8-888-10-101010-7-777-767-|
|-8---------7---------5-555-5-7-8--8-888-10-101010-5-555-545-|
|---------------------0-000-0-0-0--8-888-10-101010-0-000-----|
|                                                            |
|------------------------------------------------------------|
|------------------------------------------------------------|
|-10-9-7-----------------------------------------------------|
|------------------------------------------------------------|
|------------------------------------------------------------|
|------------------------------------------------------------|
“I won’t let this build up inside of me.”

|-------------------------------------------------------------------|
|-------------------------------------------------------------------|
|-7-777-7-777-14-141414-7-777-7-777-14-141414-7-777-7-777-14-141414-|
|-7-777-7-777-14-141414-7-777-7-777-14-141414-7-777-7-777-14-141414-|
|-5-555-5-555-12-121212-5-555-5-555-12-121212-5-555-5-555-12-121212-|
|-0-000-0-000-0--0-0-0--0-000-0-000-0--0-0-0--0-000-0-000-0--0-0-0--|
A catch in my throat, choke. Torn into pieces, I won’t. No. I don’t want to be this.”

||--------0---------0---------0---------0----||
||o---6-----6---6-----6---6-----6---6-----6-o||
||------7---------7---------7---------7------|| [3x]
||-------------------------------------------||
||o-8---------7---------5---------7---------o||
||-------------------------------------------||
|(listen to get Gtr.2 timing right)    |
|------------|------------|------------|
|------------|------------|------------|
|-10-9-7-----|-10-9-15-14-|-14-14-14---|
|------------|------------|------------|
|------------|------------|------------|
|------------|------------|------------|
“But I won’t let this build up inside of me.
I won’t let this build up inside of me.
I won’t let this build up inside of me.”

|-------0---------0---|
|---6-----6---6-----6-|
|-----7---------7-----|
|---------------------|
|-8---------7---------|
|---------------------|
|                     |
|---------------------|
|---------------------|
|-10-9----------------|
|---------------------|
|---------------------|
|---------------------|


|-------------------------------------------------------|
|-------------------------------------------------------|
|-------------------------------------------------------|
|-9991111119-9-9-99999-99-0-000-0-000-4p2p0-000-2-000-4-|
|-9999-9-9-10101099991097-0-000-0-000-2p2p0-000-2-000-2-|
|-9999-9-9-9-9-9-99999-99-0-000-0-000-0-----000-0-000-0-|
|                                                       |
|-------------------------------------------------------|
|-------------------------------------------------------|
|-------------------------------------------------------|
|-------------------------------------------------------|
|-------------------------------------------------------|
|-9-----------------------0-----------------------------|
(won’t let this build up(build up) inside of me(inside of me).)

|-------------------------------------------------------|
|-------------------------------------------------------|
|-------------------------------------------------------|
|-9991111119-9-9-99999-99-0-000-0-000-4p2p0-000-2-000-4-|
|-9999-9-9-10101099991097-0-000-0-000-2p2p0-000-2-000-2-|
|-9999-9-9-9-9-9-99999-99-0-000-0-000-0-----000-0-000-0-|
|                                                       |
|-------------------------------------------------------|
|-------------------------------------------------------|
|-------------------------------------------------------|
|-------------------------------------------------------|
|-------------------------------------------------------|
|-9-----------------------0-----------------------------|
(won’t let this build up(build up) inside of me(inside of me).)

|-------------------------------------------------------|
|-------------------------------------------------------|
|-------------------------------------------------------|
|-9991111119-9-9-99999-99-0-000-0-000-4p2p0-000-2-000-4-|
|-9999-9-9-10101099991097-0-000-0-000-2p2p0-000-2-000-2-|
|-9999-9-9-9-9-9-99999-99-0-000-0-000-0-----000-0-000-0-|
|                                                       |
|-------------------------------------------------------|
|-------------------------------------------------------|
|-------------------------------------------------------|
|-------------------------------------------------------|
|-------------------------------------------------------|
|-9-----------------------0-----------------------------|
(won’t let this build up(build up) inside of me(inside of me).)
She isn’t real.

|-------------------------------------------------------|
|-------------------------------------------------------|
|-------------------------------------------------------|
|-9991111119-9-9-99999-99-0-000-0-000-4p2p0-000-2-000-4-|
|-9999-9-9-10101099991097-0-000-0-000-2p2p0-000-2-000-2-|
|-9999-9-9-9-9-9-99999-99-0-000-0-000-0-----000-0-000-0-|
|                                                       |
|-------------------------------------------------------|
|-------------------------------------------------------|
|-------------------------------------------------------|
|-------------------------------------------------------|
|-------------------------------------------------------|
|-9-----------------------0-----------------------------|
(won’t let this build up(build up) inside of me(inside of me).)
I can’t make her real.

|-------------------------------------------------------|
|-------------------------------------------------------|
|-------------------------------------------------------|
|-9991111119-9-9-99999-99-0-000-0-000-4p2p0-000-2-000-4-|
|-9999-9-9-10101099991097-0-000-0-000-2p2p0-000-2-000-2-|
|-9999-9-9-9-9-9-99999-99-0-000-0-000-0-----000-0-000-0-|
|                                                       |
|-------------------------------------------------------|
|-------------------------------------------------------|
|-------------------------------------------------------|
|-------------------------------------------------------|
|-------------------------------------------------------|
|-9-----------------------0-----------------------------|
(won’t let this build up(build up) inside of me(inside of me).)
She isn’t real.

|-------------------------------------------------------|
|-------------------------------------------------------|
|-------------------------------------------------------|
|-9991111119-9-9-99999-99-0-000-0-000-4p2p0-000-2-000-4-|
|-9999-9-9-10101099991097-0-000-0-000-2p2p0-000-2-000-2-|
|-9999-9-9-9-9-9-99999-99-0-000-0-000-0-----000-0-000-0-|
|                                                       |
|-------------------------------------------------------|
|-------------------------------------------------------|
|-------------------------------------------------------|
|-------------------------------------------------------|
|-------------------------------------------------------|
|-9-----------------------0-----------------------------|
(won’t let this build up(build up) inside of me(inside of me).)
I can’t make her real.

|-------------------------------------------------------|
|-------------------------------------------------------|
|-------------------------------------------------------|
|-------------------------------------------------------|
|-------------------------------------------------------|
|-0-----------------------------------------------------|
|                                                       |
|-------15-14-------------------------------------------|
|-12-13-------------------------------------------------|
|-------------------------------------------------------|
|-------------------------------------------------------|
|-------------------------------------------------------|
|-------------------------------------------------------|    

Added On December 16th, 2013

SHARE

Comments

blog comments powered by Disqus

ADVERTISEMENT