Slipknot Tabs

Welcome

3 versions

TAB

            WELCOME
SLIPKNOT
VOL. 3 (THE SUBLIMINAL VERSES)

I don’t care if you post my tab somewhere else, that’s fine, but please don’t change or 
it in any way if you do.

!!!WARNING!!!
This is an extremely fast song. Practice it at a slower pace at first so that you don’t 
your arm out. Also, some parts seem to have no rhythm (although they do, if you listen 
enough). Listen to the song for correct rhythm when you attempt to play it.

tuning: drop B

SYMBOLS:
. = PALM MUTE
# = TREM. PICK (PALM MUTE + ALT. PICK)
\ = SLIDE UP
/ = SLIDE DOWN
h = HAMMER ON
p = PULL OFF
* = PINCH HARMONIC
~ = VIBRATO

INTRO PART 1
|------------------------------------------------------|
|------------------------------------------------------|
|------------------------------------------------------|
|------------------------------------------------------|	X2
|-----0-------2-1-0---------2-1-0-----0-------0--------|
|-0-1-0---0-0-2-1-0---------2-1-0-----0---0-1-0--------|
  # #     . .                             # #

INTRO PART 2
|-----------------------------------------|
|-----------------------------------------|
|-----------------------------------------|
|-----------------------------------------|	x2
|-----------------------------------------|
|-0-4-1-0---0-4—1-0---0-4-1-0---0-4-1-0---|
  . . . .   . . . .   . . . .   . . . .

INTRO PART 3
|-----------------------------------------|
|-----------------------------------------|
|-----------------------------------------|
|-----------------------------------------|	X4
|-0-2-1-0---0-2-1-0---0-2-1-0---0-2-1-0---|
|-0-2-1-0---0-2-1-0---0-2-1-0---0-2-1-0---|

VERSE PART 1
|-----------------------------|
|-----------------------------|
|-----------------------------|
|-----------------------------|	X4
|-----0-------2-1-0-----------|
|-0-1-0---0-0-2-1-0-----0-0-1-|
  # #     . .           . . #

VERSE PART 2
|-----------------------------|
|-----------------------------|
|-----------------------------|
|-----------------------------|	X4
|-2-1-0-----0---------0-------|
|-2-1-0-----0---0-0-1-0---0-0-|
                . . #     . .

PRE CHORUS
|-----------|
|-----------|
|-----------|
|-----------|
|-8-8-8-8---|
|-8-8-8-8-8-|
  . . . . #

|---------------------------------|
|---------------------------------|
|---------------------------------|
|---------------------------------|	x4
|---------------------------------|
|-0-0-4p3---0-3p2---0-2p1---0-6p5-|
  . .       .       .       .

INTRO PART 3	X2
VERSE PART 1	X4
VERSE PART 2	X4
PRE CHORUS

CHORUS
|---------------------------------|
|---------------------------------|
|---------------------------------|
|---------------------------------|	x4
|-0-0-4\3---0-3\2---0-2\1---0-6\5-|
|-0-0-4\3---0-3\2---0-2\1---0-6\5-|
  . .       .       .       .

INTRO PART 1

LEAD INTO SOLO
|--------------------------------------|
|--------------------------------------|
|--------------------------------------|
|--------------------------------------|	X4
|-2-1-0---------------------3*---------|
|-2-1-0-----------------3-4------0-0-0-|
                                 . . .

SOLO (This is a very short solo. It’s not as long as it looks.)
|-12h13p12---12h15p12-|
|---------------------|
|---------------------|
|---------------------|
|---------------------|
|---------------------|

|-12h13p12-12h14p12-12h15p12h14-------13-------14-------15-|
|-------------------------------12-12----12-12----12-12----|
|----------------------------------------------------------|
|----------------------------------------------------------|
|----------------------------------------------------------|
|----------------------------------------------------------|
                                .  .     .  .     .  .

|-12h13h14-12h13h14h15-15p14p13p12-12h13p12-12h14-|
|-------------------------------------------------|
|-------------------------------------------------|
|-------------------------------------------------|
|-------------------------------------------------|
|-------------------------------------------------|

|-12h13-13p12-12h14-14p12-12h15p12h15---13h14---|
|-----------------------------------------------|
|-----------------------------------------------|
|-----------------------------------------------|
|-----------------------------------------------|
|-----------------------------------------------|

VERSE PART 3
|---------------------------------------------|
|---------------------------------------------|
|---------------------------------------------|
|-12~--------12~--------12~--------12~--------|
|---------------------------------------------|
|---------------------------------------------|

VERSE PART 4
|--------------------------------------|
|--------------------------------------|
|--------------------------------------|
|--------------------------------------|	X4
|-2-1-0---2-1-0-------------3*---------|
|-2-1-0---2-1-0---------3-4------0-0-0-|
                                 . . .

VERSE PART 5
|---------------------------------|
|---------------------------------|
|---------------------------------|
|---------------------------------|	X4
|-2-1-0---2-1-0---2-1-0---2-1-0---|
|-2-1-0---2-1-0---2-1-0---2-1-0---|
  . . .   . . .   . . .   . . .

PRE CHORUS
CHORUS
VERSE PART 4	X4

OUTRO
|-------------------|
|-------------------|
|-------------------|
|-------------------|
|-2-1-0---0-0-2-1-0-|
|-2-1-0---0-0-2-1-0-|
  . . .   . . . . .    

Added On December 16th, 2013

SHARE

Comments

blog comments powered by Disqus

VERSIONS

ADVERTISEMENT