Slipknot Tabs

Wherein Lies Continue Intro

1 versions

TAB

            tab by metalgui
----------------------------------------------------|
----------------------------------------------------|
----------------------------------------------------|
----------------------------------------------------|(x4)
----------------------1-2---------------------------|
-0-0-0-0-0-0-0-0--0-0-1-2-0-0-0-0-0-0-0-0--0-0--0-0-|
verse like intro
verse 2
----------------------------------------------------|
----------------------------------------------------|
----------------------------------------------------|
---------------------1-2----------------------5h6---|(x4)
---------------------1-2----------------------------|
-0-0-0-0-0-0-0-0--0-0---0-0-0-0-0-0-0-0--0-0--------|


please rate    

Added On December 16th, 2013

SHARE

Comments

blog comments powered by Disqus

ADVERTISEMENT