Slipknot Tabs

Xix

1 versions

TAB

            ( during the whole song )

Guitar 1:
e|---------|---------|---------|---------|     |---------|---------|---------|---------|
B|---------|---------|---------|---------|     |-10------|---------|---------|---------|
G|---------|---------|---------|---------|     |---------|-7-------|-5-------|-10-9----|
D|-7-------|---------|---------|---------|     |-7-------|---------|---------|---------|
A|---------|-5-------|-3-------|-8-7-----|     |---------|-5-------|-3-------|-8--7----|
E|---------|---------|---------|---------| x2  |---------|---------|---------|---------|  x2

Guitar 2:
e|--------------------------------------------|
B|--------------------------------------------|
G|-12\-9-9-9--7h9-9-10p9-9-7h9-9-10p9-7h9-9-9-|
D|--------------------------------------------|
A|--------------------------------------------|
E|--------------------------------------------|    

Added On January 1st, 2015

SHARE

Comments

blog comments powered by Disqus

ADVERTISEMENT