Smash Mouth Tabs

Out Of Sight

1 versions

TAB

            Out Of Sight Tab by Smash Mouth


1st verse: (picking)

(use these chords, but pick the notes)
     d/b      d/b       Am     Em

e|----0--------0--------0--------------------------------------------|
B|---3-3------3-3------1-1--------0----------------------------------|
G|--2---2----2---2----2---2------0-0---------------------------------|
D|-0----------------------------2---2--------------------------------|
A|----------2--------0-----------------------------------------------|
E|-----------------------------0-------------------------------------|

1st chorus: (picking)
e|----------------------------3----------------------------------|
B|---------------3----0------0-0-----0-----0---------------------|
G|---------0----2----0-0----0---0------2----2--------------------|
D|-------0----------2---2-------------1------1-------------------|
A|---------------------------------------------------------------|
E|--2-3--------2--0--------2-------------------------------------|
and you're a star now....  blinking bright

e|----------------------------3----------------0-----0------------|
B|---------------3----0------0-0-----------0----0----0------------|
G|---------0----2----0-0----0---0---------3-3----3---3------------|
D|-------0----------2---2----------------4---4-------4------------|
A|---------------------------------------------------X------------|
E|--2-3--------2--0--------2-----------2-------------2------------|

and you drive so fast now.... outta sight


Verse 2 (strumming)

D                              D/B
The tickertape wants us to fail...
         Am                            Em
And the limosuine just drives us to jail...
         D                 D/B
And the conceirge can't tell us where,
     Am               Em
The ladies dance.

D                           D/B
But you are my friend in miles,
  Am                Em                   D
Radio waves, stations and diles and smiles.
   D/B              Am
Cities and towns....
Em
Slow down.

Chorus 2: (strumming)
       (alternate the strum direction)  
e|-----0-0-0-0--0-0-0-0--0-0-0-0--3-3-3-3--0-0-0-0-------------------|
B|-----0-0-0-0--3-3-3-3--0-0-0-0--0-0-0-0--0-0-0-0-------------------|
G|-----0-0-0-0--2-2-2-2--0-0-0-0--0-0-0-0--2-2-2-2-------------------|
D|-----0-0-0-0--0-0-0-0--2-2-2-2--0-0-0-0--1-1-1-1-------------------|
A|-----0-0-0-0--0-0-0-0--2-2-2-2--0-0-0-0--0-0-0-0-------------------|
E|---2-3-3-3-3--2-2-2-2--0-0-0-0--2-2-2-2--x-x-x-x-------------------|

And you're a star now  . . .     blinkin bright

e|-----0-0-0-0--0-0-0-0--0-0-0-0--3-3-3-3--0-0-0-0-------------------|
B|-----0-0-0-0--3-3-3-3--0-0-0-0--0-0-0-0--0-0-0-0-------------------|
G|-----0-0-0-0--2-2-2-2--0-0-0-0--0-0-0-0--2-2-2-2-------------------|
D|-----0-0-0-0--0-0-0-0--2-2-2-2--0-0-0-0--1-1-1-1-------------------|
A|-----0-0-0-0--0-0-0-0--2-2-2-2--0-0-0-0--0-0-0-0-------------------|
E|---2-3-3-3-3--2-2-2-2--0-0-0-0--2-2-2-2--x-x-x-x-------------------|

And you drive so fast now . . .    outta sight


SOLO: (this is done on a harmonica in the song, but it sounds just as good on guitar)

e|----9-12---10--------------------------------------------------------|
B|-11----------10~-----10-12-13---12---10---8--10---7------------------|
G|----------------------------------------------------7----------------|
D|---------------------------------------------------------------------|
A|---------------------------------------------------------------------|
E|---------------------------------------------------------------------|


e|----------------------------10---------------------14-15-14--12------|
B|-10-12-13--12---10--12---10----10--------------15--------------------|
G|--------------------------------------------14-----------------------|
D|---------------------------------------------------------------------|
A|---------------------------------------------------------------------|
E|---------------------------------------------------------------------|

e|--10-12-14-------------------------------17-15-14-12-10--------------|
B|--------------------------------------------------------10-----------|
G|---------------------------------------------------------------------|
D|---------------------------------------------------------------------|
A|---------------------------------------------------------------------|
E|---------------------------------------------------------------------|

              ("ohhhhh ohhhhhhh.....")

Chorus 3:

       (alternate the strum direction)  
e|-----0-0-0-0--0-0-0-0--0-0-0-0--3-3-3-3--0-0-0-0-------------------|
B|-----0-0-0-0--3-3-3-3--0-0-0-0--0-0-0-0--0-0-0-0-------------------|
G|-----0-0-0-0--2-2-2-2--0-0-0-0--0-0-0-0--2-2-2-2-------------------|
D|-----0-0-0-0--0-0-0-0--2-2-2-2--0-0-0-0--1-1-1-1-------------------|
A|-----0-0-0-0--0-0-0-0--2-2-2-2--0-0-0-0--0-0-0-0-------------------|
E|---2-3-3-3-3--2-2-2-2--0-0-0-0--2-2-2-2--x-x-x-x-------------------|

And you're a star now  . . .     blinkin bright

e|-----0-0-0-0--0-0-0-0--0-0-0-0--3-3-3-3--0-0-0-0-------------------|
B|-----0-0-0-0--3-3-3-3--0-0-0-0--0-0-0-0--0-0-0-0-------------------|
G|-----0-0-0-0--2-2-2-2--0-0-0-0--0-0-0-0--2-2-2-2-------------------|
D|-----0-0-0-0--0-0-0-0--2-2-2-2--0-0-0-0--1-1-1-1-------------------|
A|-----0-0-0-0--0-0-0-0--2-2-2-2--0-0-0-0--0-0-0-0-------------------|
E|---2-3-3-3-3--2-2-2-2--0-0-0-0--2-2-2-2--x-x-x-x-------------------|

And you drive so fast now . . .    outta sight

e|-----0-0-0-0--0-0-0-0--0-0-0-0--3-3-3-3--0-0-0-0-------------------|
B|-----0-0-0-0--3-3-3-3--0-0-0-0--0-0-0-0--0-0-0-0-------------------|
G|-----0-0-0-0--2-2-2-2--0-0-0-0--0-0-0-0--2-2-2-2-------------------|
D|-----0-0-0-0--0-0-0-0--2-2-2-2--0-0-0-0--1-1-1-1-------------------|
A|-----0-0-0-0--0-0-0-0--2-2-2-2--0-0-0-0--0-0-0-0-------------------|
E|---2-3-3-3-3--2-2-2-2--0-0-0-0--2-2-2-2--x-x-x-x-------------------|
   Outta Sight...               Ouuuuutta siiiight...
Outro: 

e|----0-------------0---------------0-------------------------------------|
B|---3-3-----------3-3-------------1-1--------0-----------------------------|
G|--2---2---------2---2-----------2---2------0-0----------------------------|
D|-0----------------------------------------2---2---------------------------|
A|---------------2--------------0------------------------------------------|
E|----------------------------------------0--------------------------------|
Ouuuuuuuuuuuuuutta sight....

e|----0-------------0---------------0-------------------------------------|
B|---3-3-----------3-3-------------1-1--------0-----------------------------|
G|--2---2---------2---2-----------2---2------0-0----------------------------|
D|-0----------------------------------------2---2---------------------------|
A|---------------2--------------0------------------------------------------|
E|----------------------------------------0--------------------------------|
Ouuuuuuuuuuuuuuuutta sight....    

Added On December 12th, 2013

SHARE

Comments

blog comments powered by Disqus

ADVERTISEMENT