Smiths Tabs

This Night Has Opened My Eyes

3 versions

TAB

            This Night Has Opened My Eyes Tab by Smiths


Verse Part A
|---------------------------|
|--------------12\7~-12\----|
|-11-9---11-9-----------9~--|
|---------------------------|
|---------------------------|
|---------------------------|

Chorus
|---------------------------|
|-8-8~-7-7-----8-8~-7-7-----|
|---------------------------|
|---------------------------|
|---------------------------|
|---------------------------|

|-9--7-------7--------------|
|------7--------10----------|
|--------7---------9--------|
|--------------------(9)----|
|---------------------------|
|---------------------------|

Verse Part B
 1
|---------------------------|
|-12\7--5-------------------|
|---------7-6-6--7-----6----|
|--------------------7---7--|
|---------------------------|
|---------------------------|
 2
|---------------------------|
|-x8-8-7-----8---7-5--------|
|--------7-----7-------6----|
|--------------------7---7--|
|---------------------------|
|---------------------------|
 3
|---------------------------|
|-x8-8-7-----8---7----------|
|--------7-----7---7-7/11-9-|
|---------------------------|
|---------------------------|
|---------------------------|

Order:
00:00 Verse A X 2
00:20 Chorus
00:29 Verse A x 2
00:49 Chorus
00:59 Verse B 1+2 x 2 
01:18 Verse B 3 
01:25 Verse A x 2
01:44 Chorus 

01:54 Verse B 1+2 x 2 \
02:13 Verse B 3       /Repeat to fade    

Added On December 12th, 2013

SHARE

Comments

blog comments powered by Disqus

VERSIONS

ADVERTISEMENT