Snow Patrol Tabs

Fifteen Minutes Old

2 versions

TAB

            Fifteen Minutes Old Tab by Snow Patrol


This song is pretty easy and flippin sweet - enjoy!


Verses (play this riff for the verses
e|--------------------------------------|
B|--------------------------------------|
G|--2s4--0--4--0-----0-----0------------|
D|----------------4-----4---------------|
A|--------------------------------------|
E|--------------------------------------|

Chorus
e|--------------------------------------|
B|--------------------------------------|
G|--------------------------------------|
D|--0-----0--------0-----0-----0-----0--|
A|-----5-----5--2-----2-----2-----2-----|
e|--------------------------------------|
(Can i have a picture of you tonight)

e|--------------------------------------|
B|--------------------------------------|
G|--2s4--0--4--0-----0-----0------------|
D|----------------4-----4---------------|
A|--------------------------------------|
E|--------------------------------------|

e|--------------------------------------|
B|--------------------------------------|
G|--------------------------------------|
D|--0-----0--------0-----0-----0-----0--|
A|-----5-----5--2-----2-----2-----2-----|
(Keep it with me always in my mind)

e|--------------------------------------|
B|--------------------------------------|
G|--------------------------------------|
D|-----2-----2-----2-----2--------------|
A|--------------0-----0-----------------|
E|--3-----3-----------------------------|


Snow Patrol pwn woo!

oresteez@hotmail.com for questions/corrections/fluid exchange    

Added On December 12th, 2013

SHARE

Comments

blog comments powered by Disqus

VERSIONS

ADVERTISEMENT