Snow Patrol Tabs

My Brothers tab

1 versions

TAB

            [Intro]
e|------------------------|----------0-------------|----3-------------------|----------0-------------|
B|----------1-------------|----------------1-------|----------1-------------|----------------1-------|
G|----------------0-------|----2-------------------|----------------0-------|----2-----------------0-|
D|----2-----------------0-|----------------------0-|----------------------0-|------------------------|
A|------------------------|-3-----3-----3-----3----|------------------------|-3-----3-----3-----3----|
E|-3----------------------|------------------------|-3-----3-----3-----3----|------------------------|

e|----3-------------------|----------0-----------3-|------------------------|----------0-------------|
B|----------1-------------|----------------1-------|----------1-------------|----------------1-------|
G|----------------0-------|----2-------------------|----0-----------0-------|----2-----------------0-|
D|----------------------0-|------------------------|----------------------0-|------------------------|
A|------------------------|-3-----3-----3-----3----|-2----------------------|-3-----3-----3-----3----|
E|-3-----3-----3-----3----|------------------------|-3-----------------3----|------------------------|
                                                                                            You might

[Verse 1]
e|--------------------------------------|----------0----------------|---------------------------|
B|---------------1----------------------|----------------1----------|----------1----------------|
G|-------0---------------0--------------|----2-----------------0----|----0-----------0----------|
D|---------------------------------0----|---------------------------|----------------------0----|
A|--------------------------------------|-3-----3-----3-----3-------|---------------------------|
E|-3--------3---------3-------3---------|---------------------------|-3-----3-----3-----3-------|
  think you're cursed   but what's so       much  worst is the know____ledge  that   you   are.

e|----------0-------------------|-------------------------------|-----------0-------------------|
B|----------------1-------------|---------------1---------------|-------------------1-----------|
G|----2--------------------0----|--------0------------0---------|----2----------------------0---|
D|------------------------------|----------------------------0--|-------------------------------|
A|-3-----3-----3-----3----------|-------------------------------|-3------3------3-------3-------|
E|------------------------------|---3--------3-----3------3-----|-------------------------------|
                    When you're  cursed with a love  that is bur__ied   so deep   that you can't

e|---------------------------|-----------0------------------|
B|----------1----------------|-------------------1----------|
G|----0------------0---------|-----2----------------------0-|
D|------------------------0--|------------------------------|
A|---------------------------|--3-----3-----3--------3------|
E|-3------3-----3-----3------|------------------------------|
     dig it out   of     you,                  when your crys__

e|---------------------------|----------0----------------|-----------------------------|
B|----------1----------------|----------------1----------|-------------1---------------|
G|----0-----------0----------|----2--------------------0-|------0------------0---------|
D|----------------------0----|---------------------------|--------------------------0--|
A|---------------------------|-3-----3-----3-----3-------|-----------------------------|
E|-3-----3----3------3-------|---------------------------|-3-------3------3------3-----|
  ___tal   ball   is a  tir______ing   wall  and the road      is  a dark   book   end 

e|-----------0-----------------|------------------------------|-----------0------------------|
B|-------------------1---------|------------1-----------------|-------------------1----------|
G|----2----------------------0-|-----0-------------0----------|-----2----------------------0-|
D|-----------------------------|---------------------------0--|------------------------------|
A|-3------3------3-------3-----|------------------------------|--3-----3-----3--------3------|
E|-----------------------------|-3-------3------3------3------|------------------------------|
                     you know   what rem___ains   is what needs    main__tain    but your tem___

e|----------------------------|-----------0----------------|
B|-----------1----------------|-----------------1----------|
G|----0------------0----------|-----2-----------------0----|
D|-----------------------0----|----------------------------|
A|----------------------------|--3-----3-----3-----3-------|
E|-3------3-----3-----3-------|----------------------------|
  ___per is not   your  friend.

[Chorus]
e|------------------------|----------0-------------|---------------------------|----------0-------------|
B|----------1-------------|----------------1-------|-----------1---------------|----------------1-------|
G|----0-----------0-------|----2-----------------0-|----0-------------0--------|----2-----------------0-|
D|----------------------0-|------------------------|-------------------------0-|------------------------|
A|------------------------|-3-----3-----3-----3----|---------------------------|-3-----3-----3-----3----|
E|-3-----3----3------3----|------------------------|-3-----3-------3------3----|------------------------|
             Take it   ea______sy   on     me   now     my     bro___thers.

e|------------------------|----------0-------------|----------------------------|--------0----------------|
B|----------1-------------|----------------1-------|-----------1----------------|--------------1----------|
G|----0-----------0-------|----2-----------------0-|----0-------------0---------|---2------------------0--|
D|----------------------0-|------------------------|--------------------------0-|-------------------------|
A|------------------------|-3-----3-----3-----3----|----------------------------|-3----3----3-----3-------|
E|-3-----3----3------3----|------------------------|-3-----3-------3-------3----|-------------------------|
             Take it   ea______sy   on     me   now     my     bro___thers.                      Well their

[Verse]
e|-----------------------------|-----------0-------------------|----------------------------|
B|-------------1---------------|-----------------1-------------|------------1---------------|
G|-------0-----------0---------|----2-----------------------0--|----0-------------0---------|
D|---------------------------0-|-------------------------------|-----------------------0----|
A|-----------------------------|-3------3-----3-------3--------|----------------------------|
E|-3--------3-----3-------3----|-------------------------------|-3------3------3-----3------|
  games are   dri___ving you up the wall        and they're wear___ing you like   a    crown

e|----------0-----------------|-------------------------------|-----------0--------------------|
B|----------------1-----------|-------------1-----------------|-------------------1------------|
G|----2---------------------0-|------0------------0-----------|----2----------------------0----|
D|----------------------------|----------------------------0--|--------------------------------|
A|-3-----3-----3-------3------|-------------------------------|-3------3------3-------3--------|
E|----------------------------|-3--------3-----3------3-------|--------------------------------|
                  but your jar    trapped  bees  and it's plain to see           that you can't

e|-------------------------------|-----------0----------------|
B|---------------1---------------|-----------------1----------|
G|----0----------------0---------|-----2-----------------0----|
D|---------------------------0---|----------------------------|
A|-------------------------------|--3-----3-----3-----3-------|
E|-3-------3--------3-----3------|----------------------------|
     tell what's up    or    down.

[Chorus]
e|------------------------|----------0-------------|---------------------------|----------0-------------|
B|----------1-------------|----------------1-------|-----------1---------------|----------------1-------|
G|----0-----------0-------|----2-----------------0-|----0-------------0--------|----2-----------------0-|
D|----------------------0-|------------------------|-------------------------0-|------------------------|
A|------------------------|-3-----3-----3-----3----|---------------------------|-3-----3-----3-----3----|
E|-3-----3----3------3----|------------------------|-3-----3-------3------3----|------------------------|
             Take it   ea______sy   on     me   now     my     bro___thers.

e|------------------------|----------0-------------|----------------------------|--------0-------------|
B|----------1-------------|----------------1-------|-----------1----------------|--------------1-------|
G|----0-----------0-------|----2-----------------0-|----0-------------0---------|---2----------------0-|
D|----------------------0-|------------------------|--------------------------0-|----------------------|
A|------------------------|-3-----3-----3-----3----|----------------------------|-3----3----3-----3----|
E|-3-----3----3------3----|------------------------|-3-----3-------3-------3----|----------------------|
             Take it   ea______sy   on     me   now     my     bro___thers.

[Solo]
e|------------------------|----------0-------------|---------------------------|----------0-------------|
B|----------1-------------|----------------1-------|-----------1---------------|----------------1-------|
G|----0-----------0-------|----2-----------------0-|----0-------------0--------|----2-----------------0-|
D|----------------------0-|------------------------|-------------------------0-|------------------------|
A|------------------------|-3-----3-----3-----3----|---------------------------|-3-----3-----3-----3----|
E|-3-----3----3------3----|------------------------|-3-----3-------3------3----|------------------------|

e|------------------------|----------0-------------|---------------------------|----------0-------------|
B|----------1-------------|----------------1-------|-----------1---------------|----------------1-------|
G|----0-----------0-------|----2-----------------0-|----0-------------0--------|----2-----------------0-|
D|----------------------0-|------------------------|-------------------------0-|------------------------|
A|------------------------|-3-----3-----3-----3----|---------------------------|-3-----3-----3-----3----|
E|-3-----3----3------3----|------------------------|-3-----3-------3------3----|------------------------|

e|------------------------|----------0-------------|---------------------------|----------0-------------|
B|----------1-------------|----------------1-------|-----------1---------------|----------------1-------|
G|----0-----------0-------|----2-----------------0-|----0-------------0--------|----2-----------------0-|
D|----------------------0-|------------------------|-------------------------0-|------------------------|
A|------------------------|-3-----3-----3-----3----|---------------------------|-3-----3-----3-----3----|
E|-3-----3----3------3----|------------------------|-3-----3-------3------3----|------------------------|

e|------------------------|----------0-------------|---------------------------|----------0-------------|
B|----------1-------------|----------------1-------|-----------1---------------|----------------1-------|
G|----0-----------0-------|----2-----------------0-|----0-------------0--------|----2-----------------0-|
D|----------------------0-|------------------------|-------------------------0-|------------------------|
A|------------------------|-3-----3-----3-----3----|---------------------------|-3-----3----3------3----|
E|-3-----3----3------3----|------------------------|-3-----3-------3------3----|------------------------|
                                                                                              Well it's no

[Verse]
e|------------------------------|-----------0---------------|----------------------------|
B|-----------1------------------|-----------------1---------|-------------1--------------|
G|-----0-------------0----------|----2--------------------0-|----0--------------0--------|
D|----------------------------0-|---------------------------|------------------------0---|
A|------------------------------|-3------3-----3-----3------|----------------------------|
E|-3------3-------3------3------|---------------------------|-3------3-------3-----3-----|
      sur___prise   in those steel  blue   eyes   I can still   see some flecks of   fear

e|----------0------------------|---------------------------|-----------0-------------------|
B|----------------1------------|-----------1---------------|-------------------1-----------|
G|----2----------------------0-|----0------------0---------|----2----------------------0---|
D|-----------------------------|------------------------0--|-------------------------------|
A|-3-----3-----3-------3-------|---------------------------|-3------3------3-------3-------|
E|-----------------------------|-3-----3------3------3-----|-------------------------------|
                 but you've grown   up   fast    so forget  the past          and just hu__

e|-----------------------------|-----------0----------------|
B|------------1----------------|-----------------1----------|
G|----0--------------0---------|-----2-----------------0----|
D|--------------------------0--|----------------------------|
A|-----------------------------|--3-----3-----3-----3-------|
E|-3-------3------3------3-----|----------------------------|
  ___rry yourself   from   here.

[Chorus]
e|------------------------|----------0-------------|---------------------------|----------0-------------|
B|----------1-------------|----------------1-------|-----------1---------------|----------------1-------|
G|----0-----------0-------|----2-----------------0-|----0-------------0--------|----2-----------------0-|
D|----------------------0-|------------------------|-------------------------0-|------------------------|
A|------------------------|-3-----3-----3-----3----|---------------------------|-3-----3-----3-----3----|
E|-3-----3----3------3----|------------------------|-3-----3-------3------3----|------------------------|
             Take it   ea______sy   on     me   now     my     bro___thers.

e|------------------------|----------0-------------|----------------------------|--------0-------------|
B|----------1-------------|----------------1-------|-----------1----------------|--------------1-------|
G|----0-----------0-------|----2-----------------0-|----0-------------0---------|---2----------------0-|
D|----------------------0-|------------------------|--------------------------0-|----------------------|
A|------------------------|-3-----3-----3-----3----|----------------------------|-3----3----3-----3----|
E|-3-----3----3------3----|------------------------|-3-----3-------3-------3----|----------------------|
             Take it   ea______sy   on     me   now     my     bro___thers.

e|------------------------|----------0-------------|---------------------------|----------0-------------|
B|----------1-------------|----------------1-------|-----------1---------------|----------------1-------|
G|----0-----------0-------|----2-----------------0-|----0-------------0--------|----2-----------------0-|
D|----------------------0-|------------------------|-------------------------0-|------------------------|
A|------------------------|-3-----3-----3-----3----|---------------------------|-3-----3-----3-----3----|
E|-3-----3----3------3----|------------------------|-3-----3-------3------3----|------------------------|
             Take it   ea______sy   on     me   now     my     bro___thers.

e|------------------------|----------0-------------|----------------------------|--------0-------------|
B|----------1-------------|----------------1-------|-----------1----------------|--------------1-------|
G|----0-----------0-------|----2-----------------0-|----0-------------0---------|---2----------------0-|
D|----------------------0-|------------------------|--------------------------0-|----------------------|
A|------------------------|-3-----3-----3-----3----|----------------------------|-3----3----3-----3----|
E|-3-----3----3------3----|------------------------|-3-----3-------3-------3----|----------------------|
             Take it   ea______sy   on     me   now     my     bro___thers.

e|------------------------|----------0-------------|---------------------------|----------0-------------|
B|----------1-------------|----------------1-------|-----------1---------------|----------------1-------|
G|----0-----------0-------|----2-----------------0-|----0-------------0--------|----2-----------------0-|
D|----------------------0-|------------------------|-------------------------0-|------------------------|
A|------------------------|-3-----3-----3-----3----|---------------------------|-3-----3-----3-----3----|
E|-3-----3----3------3----|------------------------|-3-----3-------3------3----|------------------------|
             Take it   ea______sy   on     me   now     my     bro___thers.

e|------------------------|----------0-------------|----------------------------|--------0-------------|
B|----------1-------------|----------------1-------|-----------1----------------|--------------1-------|
G|----0-----------0-------|----2-----------------0-|----0-------------0---------|---2----------------0-|
D|----------------------0-|------------------------|--------------------------0-|----------------------|
A|------------------------|-3-----3-----3-----3----|----------------------------|-3----3----3-----3----|
E|-3-----3----3------3----|------------------------|-3-----3-------3-------3----|----------------------|
             Take it   ea______sy   on     me   now     my     bro___thers.

e|------------------------|----------0-------------|---------------------------|----------0-------------|
B|----------1-------------|----------------1-------|-----------1---------------|----------------1-------|
G|----0-----------0-------|----2-----------------0-|----0-------------0--------|----2-----------------0-|
D|----------------------0-|------------------------|-------------------------0-|------------------------|
A|------------------------|-3-----3-----3-----3----|---------------------------|-3-----3-----3-----3----|
E|-3-----3----3------3----|------------------------|-3-----3-------3------3----|------------------------|
             Take it   ea______sy   on     me   now     my     bro___thers.

e|------------------------|----------0-------------|----------------------------|--------0-------------|
B|----------1-------------|----------------1-------|-----------1----------------|--------------1-------|
G|----0-----------0-------|----2-----------------0-|----0-------------0---------|---2----------------0-|
D|----------------------0-|------------------------|--------------------------0-|----------------------|
A|------------------------|-3-----3-----3-----3----|----------------------------|-3----3----3-----3----|
E|-3-----3----3------3----|------------------------|-3-----3-------3-------3----|----------------------|
             Take it   ea______sy   on     me   now     my     bro___thers.

[Outro]
e|------------------------|----------0-------------|----------------------------|--------0-------------|
B|----------1-------------|----------------1-------|-----------1----------------|--------------1-------|
G|----0-----------0-------|----2-----------------0-|----0-------------0---------|---2----------------0-|
D|----------------------0-|------------------------|--------------------------0-|----------------------|
A|------------------------|-3-----3-----3-----3----|----------------------------|-3----3----3-----3----|
E|-3-----3----3------3----|------------------------|-3-----3-------3-------3----|----------------------|

e|------------------------|----------0-------------|----------------------------|--------0-------------|
B|----------1-------------|----------------1-------|-----------1----------------|--------------1-------|
G|----0-----------0-------|----2-----------------0-|----0-------------0---------|---2----------------0-|
D|----------------------0-|------------------------|--------------------------0-|----------------------|
A|------------------------|-3-----3-----3-----3----|----------------------------|-3----3----3-----3----|
E|-3-----3----3------3----|------------------------|-3-----3-------3-------3----|----------------------|

e|------------------------|----------0-------------|----------------------------|--------0-------------|
B|----------1-------------|----------------1-------|-----------1----------------|--------------1-------|
G|----0-----------0-------|----2-----------------0-|----0-------------0---------|---2----------------0-|
D|----------------------0-|------------------------|--------------------------0-|----------------------|
A|------------------------|-3-----3-----3-----3----|----------------------------|-3----3----3-----3----|
E|-3-----3----3------3----|------------------------|-3-----3-------3-------3----|----------------------|

e|------------|------------|
B|------------|------------|
G|------------|--2---------|
D|--0---------|------------|
A|--2---------|--3---------|
E|--3---------|--1---------|    

Added On September 13th, 2017

SHARE

Comments

blog comments powered by Disqus

ADVERTISEMENT