Snow Patrol Tabs

Reading Heaney To Me

1 versions

TAB

            Hi, I was looking for this tab but never found it, so I try to figured it out.
I think it's pretty close, I hope you like it. If you wanna change something resubmit 
other version.




e|---------------------------------------------------|
b|----4-----------4--------------4----------4--------|
g|------0---0-------0---0----------0---0------0---0--|
d|--------3-----------3------------------------------|
a|-----------------------------------4----------4----|
e|----4-----------4--------------1----------1--------|


e|---------------------------------------------------|
b|----4-----------4--------------4----------4--------|
g|------0---0-------0---0----------0---0------0---0--|
d|--------3-----------3--------------3----------3----|
a|----3-----------3--------------4----------4--------|
e|---------------------------------------------------|

And this sequence keeps repeating the whole song.


Lyrics

The night tumbles on us
with gentle pause
The cars and the chaos
a muted purr
The couch and the kettle
are call to arms
your arms to be exact
they bring me home

I'll sit still
I'll hold my tongue
Just use your voice
and Heaney's words
Dig your way through to my heart
plant your flag and set up camp
I've shut my eyes
I've closed the blinds
Turn the phones and nightlights off
Just you and me and naturalists
held with tender hands and mouth

The storm's on the island
are just whispers now
I melt with the warm words
and your coffee tones
The dark twisted creatures
can't find us here
Your hand on my forehead
is the softest vice

I'll sit still
I'll hold my tongue
Just use your voice
and Heaney's words
Dig your way through to my heart
plant your flag and set up camp
I've shut my eyes
I've closed the blinds
Turn the phones and nightlights off
Just you and me and naturalists
held with tender hands and mouth




Juan Carrizo. ju4n-09@hotmail.com    

Added On December 16th, 2013

SHARE

Comments

blog comments powered by Disqus

ADVERTISEMENT