Social distortion Tabs

Dear Lover

5 versions

TAB

            Dear Lover Tab by Social Distortion


Capo on first fret
Tab is relative to the capo (Except solo)

Intro

e|--0-0-0000--0-0-0000------------2-2-2320--|   eb|--0~--|
B|--0-0-0000--1-1-1111------------3-3-3333--|   Bb|--3~--|
G|--0-0-0000--0-0-0000--0-0-0000--2-2-2222--|x4 Gb|--2~--|
D|--2-2-2222--2-2-2222--0-0-0000--0-0-0000--|   Db|--0~--|
A|--2-2-2222--3-3-3333--2-2-2222------------|   Ab|------|
E|--0-0-0000------------3-3-3333------------|   Eb|------|

e|-------------------------------|
B|-------------------------------|
G|----------------5--5--5-7-7----|x4
D|--2--2--2-5-5---5--5--5-7-7----|
A|--2--2--2-5-5---3--3--3-5-5-0--|
E|--0--0--0-3-3-0----------------|

Verse
e|-------------------------------|
B|-------------------------------|
G|----------------5--5--5-7-7----|x8
D|--2--2--2-5-5---5--5--5-7-7----|
A|--2--2--2-5-5---3--3--3-5-5-0--|
E|--0--0--0-3-3-0----------------|

Yeah, loving
Over and over again now
It ain't nothing girl
Till you've felt the pain
Up against the wall
Why does love always have to hurt?
Your scratches run across my back
And then a tear

Chorus
e|---------------------------------------|
B|---------------------------------------|
G|-----------5-5-555-----------7-7-777---|x4
D|--2-2-222--5-5-555--5-5-555--7-7-777---|
A|--2-2-222--3-3-3330-5-5-555--5-5-5550--|
E|--0-0-0000----------3-3-3330-----------|

Dear lover
I can't take the pain no more
Dear lover
I pick my heart up from the floor
Dear lover
I can't believe it's come to this
Dear lover
Give me one last
Painful kiss

e|-------------------------------|
B|-------------------------------|
G|----------------5--5--5-7-7----|x2
D|--2--2--2-5-5---5--5--5-7-7----|
A|--2--2--2-5-5---3--3--3-5-5-0--|
E|--0--0--0-3-3-0----------------|

Verse
e|-------------------------------|
B|-------------------------------|
G|----------------5--5--5-7-7----|x8
D|--2--2--2-5-5---5--5--5-7-7----|
A|--2--2--2-5-5---3--3--3-5-5-0--|
E|--0--0--0-3-3-0----------------|

There ain't nothin'
In this world for free now
So how high of a price
Will you pay
Hear the screams so loud
Wake up to the broken glass
It's a scene from bad to worse
And many more tears

Chorus
e|---------------------------------------|
B|---------------------------------------|
G|-----------5-5-555-----------7-7-777---|x4
D|--2-2-222--5-5-555--5-5-555--7-7-777---|
A|--2-2-222--3-3-3330-5-5-555--5-5-5550--|
E|--0-0-0000----------3-3-3330-----------|

Dear lover
I can't take the pain no more
Dear lover
I pick my heart up from the floor
Dear lover
I can't believe it's come to this
Dear lover
Give me one last
Painful kiss

e|-------------------------------|
B|-------------------------------|
G|----------------5--5--5-7-7----|x2
D|--2--2--2-5-5---5--5--5-7-7----|
A|--2--2--2-5-5---3--3--3-5-5-0--|
E|--0--0--0-3-3-0----------------|

Solo (note that for simplicity, the solo is not relative to the capo)

e|--------------------------------------------------------------------|
B|--------------------------------------9- 9--------------------------|
G|---------------------------------------10--10-10-10-88h10.-10-10-10-|
D|-3-3-5/6-----3h5/6--6-6--6~-8/10-8-8--------------------------------|
A|---------44-4-------------------------------------------------------|
E|--------------------------------------------------------------------|



e|--------------------------------------------------------------------|
B|-8-8--8-8/5-5/-3-3-3-----/13.13.13-13.13.13-16-16-16p13.13.13-11-11-|
G|--------------------------------------------------------------------|
D|--------------------------------------------------------------------|
A|--------------------------------------------------------------------|
E|--------------------------------------------------------------------|



e|--------------------------------------------------------------------|
B|-11h13.13.13-11-9-9h11.11.11-11~------------------------------------|
G|--------------------------------------------------------------------|
D|---------------------------------3-3-5/6-----3h5/6--6-6-6~-8/10-8-8-|
A|-----------------------------------------44-4-----------------------|
E|--------------------------------------------------------------------|


Chorus
e|---------------------------------------|
B|---------------------------------------|
G|-----------5-5-555-----------7-7-777---|x4
D|--2-2-222--5-5-555--5-5-555--7-7-777---|
A|--2-2-222--3-3-3330-5-5-555--5-5-5550--|
E|--0-0-0000----------3-3-3330-----------|

Dear lover
I can't take the pain no more
Dear lover
I pick my heart up from the floor
Dear lover
I can't believe it's come to this
Dear lover
Give me one last
Painful kiss

Outro
e|-------------------------------|   e|-----|
B|-------------------------------|   B|-----|
G|----------------5--5--5-7-7----|x3 G|--0~-|
D|--2--2--2-5-5---5--5--5-7-7----|   D|--2~-|
A|--2--2--2-5-5---3--3--3-5-5-0--|   A|--2~-|
E|--0--0--0-3-3-0----------------|   E|--0~-|

One last kiss [x3]    

Added On December 12th, 2013

SHARE

Comments

blog comments powered by Disqus

VERSIONS

ADVERTISEMENT