Social distortion Tabs

Ring Of Fire

3 versions

TAB

            Ring Of Fire Tab by Social Distortion


-------------------------------------------------------------------------------
Ring of Fire - Social Distortion
-------------------------------------------------------------------------------
Tuning: D-G-C-F-A-D

These are just the 4 basic parts.  Just enough to get you on the right track.  Feel free 
rate me or leave comments.  Enjoy.


Intro
   Palm mute, second guitar comes in with same pattern.
d|---------------------------------------------------------------------------|
A|---------------------------------------------------------------------------|
F|-55555555555---------------------------------------------------------------|
C|-55555555555---------------------------------------------------------------|
G|-33333333333---------------------------------------------------------------|
D|---------------------------------------------------------------------------|

d|---------------------------------------------------------------------------|
A|---------------------------------------------------------------------------|
F|---------------------------------------------------------------------------|
C|-5--5-5--5-5--5-7-3-5-----------2--2-2--2-2--2-3-0-2-----------------------|
G|-3--3-3--3-3--3-3-3-3-----------3--3-3--3-3--3-3-3-3-----------------------|
D|---------------------------------------------------------------------------|
   I fell in to a burning ring of fire...
d|---------------------------------------------------------------------------|
A|---------------------------------------------------------------------------|
A|--------------------------------5------------------------------------------|
C|-5--------------3---------------5------------------------------------------|
G|-5--------------3---------------3------------------------------------------|
D|-3--------------1----------------------------------------------------------|
    And it burns, burns, burns the ring of fire the ring of fire
d|---------------------------------------------------------------------------|
A|---------------------------------------------------------------------------|
F|---------------------------------------------------------------------------|
C|-----------------------------2---3----0---5---2---3----0---5---------------|
G|-----------------------------3---3----3---3---3---3----3---3---------------|
D|---------------------------------------------------------------------------|    

Added On December 12th, 2013

SHARE

Comments

blog comments powered by Disqus

VERSIONS

ADVERTISEMENT