Social distortion Tabs

Sometimes I Do

2 versions

TAB

            Sometimes I Do Tab by Social Distortion


BAND:Social Distortion
SONG:Sometimes I Do

VERSE:

e|---------------------------------
B|---------------------------------
G|---------------------------------
D|---------5-5-------------7-7-----
A|-5-5-5-5-3-3-5-5-5-5-5-5-5-5-5-5-
E|-3-3-3-3-----3-3-3-3-3-3-----3-3-

CHORUS:

e|-------------------------------------------------
B|-------------------------------------------------
G|-12-12-12-12-------12-12-12-12-12-12-------12-12-
D|-12-12-12-12-10-10-12-12-12-12-12-12-12-12-12-12-
A|-------------10-10-------------------12-12-------
E|-------------------------------------------------====    

Added On December 12th, 2013

SHARE

Comments

blog comments powered by Disqus

VERSIONS

ADVERTISEMENT