Something Corporate Tabs

I Want To Save You

3 versions

TAB

            I Want To Save You Tab by Something Corporate


----------------------------------------------------------------------------
			     I Want To Save You - Something Corporate
----------------------------------------------------------------------------


Tabbed by: kiefermatot

Email: bat6man9@hotmail.com


Tuning: Standard





Intro/Part of the verse also:
E|------------------|
B|------------------|
G|------------------|
D|-----8---------6--|
A|--6---------6-----|
E|------------------|

Verse:
E|---------------------------------------|
B|---------------------------------------|
G|--8-8-8-8-8-8-8--13-13-13-13-13-13-13--|
D|--8-8-8-8-8-8-8--13-13-13-13-13-13-13--|
A|--6-6-6-6-6-6-6--11-11-11-11-11-11-11--|
E|---------------------------------------|
    .............  ....................
 
Pre-Chorus:
E|-------------------------------------------------|
B|-------------------------------------------------|
G|--5--------5----------5-5-5-5--3-3-3-3-----------|
D|--5--------5----------5-5-5-5--3-3-3-3--6-6-6-6--|
A|--3--------3--5-6-8---3-3-3-3--1-1-1-1--6-6-6-6--|
E|----------------------------------------4-4-4-4--|

Chorus  (Guitar 1):
E|---------------------------------------|
B|---------------------------------------|
G|--8-8-8-8--5-5-5-5---------------------|
D|--8-8-8-8--5-5-5-5--8-8----------------|
A|--6-6-6-6--3-3-3-3--8-8---33-55-66-88--|
E|--------------------6-6----------------|

(Guitar 2):
E|--------------------------------------|
B|--------------------------------------|
G|--8-8-8-8--5-5-5-5--------------------|
D|--8-8-8-8--5-5-5-5---8-8-8-8-8-8-8-8--|
A|--6-6-6-6--3-3-3-3---8-8-8-8-8-8-8-8--|
E|---------------------6-6-6-6-6-6-6-6--|

Interlude:
E|--------------------------------|
B|--------------------------------|
G|--7-88-8-7-8-78-78--------------|
D|--7-88-8-7-8-78-78--------------|
A|--5-66-6-5-6-56-56--3--5--6--8--|
E|--------------------------------|

After that there is a pause and he sings;
  
"She wont sleep and she wont sleep at all"
E|------------------------------------------------------------------------|
B|------------------------------------------------------------------------|
G|------------------------------------------------------------------------|
D|-------------------------------------8-8-8-8-8-8-8----6-6-6-6-6-6-6-----|
A|-------------------------------------8-8-8-8-8-8-8-x2-6-6-6-6-6-6-6-x2--|
E|-------------------------------------6-6-6-6-6-6-6----------------------|


| .  palm mute note
| /  slide up
| \  slide down
| h  hammer-on
| p  pull-off
| ~  vibrato
| +  harmonic
| x  Mute note
============================================================================    

Added On December 12th, 2013

SHARE

Comments

blog comments powered by Disqus

VERSIONS

ADVERTISEMENT