Sonic Youth Tabs

Titanium Expose

1 versions

TAB

            Titanium Expose Tab by Sonic Youth


#----------------------------------PLEASE NOTE---------------------------------#
#This file is the author's own work and represents their interpretation of the #
#song. You may only use this file for private study, scholarship, or research. #
#------------------------------------------------------------------------------##
 
To: jamesb@animal-farm.nevada.edu
Subject: Re: Tab: SONIC YOUTH TITANIUM EXPOSE
Newsgroups: alt.guitar.tab
In-Reply-To: 
Organization: University of Montana
Cc:

In article  you write:
>As requested, Sonic Youth Titainum (SP?) Expose
>
>tuning low to high
>EGDGED
>
>how to tune:
>tune the high  string to the third fret of the  string.  tune the
> string to the second fret of the  string. leave the  and 
>strings. tune the  string to the third fret of the low E string.
>
>                                   |RIFF A     |
>D------------7---------------777BR-|-----------------------------R-------------|
>E----------------------------------|-----------------------------I-------------|
>G----9-----7---789---9-----7-------|-----------------------------F-------------|
>D-----7-88------------7-88---------|-----9----9----9----12121212-F---710101010-|
>G----------------------------------|-----9----9----9----12121212-----710101010-|
>E--0---------------0---------------|--00-0-00-0-00-0-00-0-0-0-0--A-0000-0-0-0--|
>                                   |RIFF A     |
>
>I hope this isn't too confusing. play riff A after the 01212XXX part.
>then they hold on 099XXX for the tempo change.
>then it alternates between 099XXX and 077XXX.
>
>D-------------------------------------------|-----------------------|
>E--------------------------------------11BR-|-----------------------|
>G--------------12-9---------------12-9------|------------------11BR-|
>D--99/12-99/12--------99/12-99/12-----------|-------------12-9------|
>G--99/12-99/12--------99/12-99/12-----------|-99-12-12-11-----------|
>E-------------------------------------------|-----------------------|
>  This is the part where Kim sings            this is the "solo"
>
>the other guitar is (i think) in EEBBEF#, but i haven't transcribed it,
>because i can't hear it.
>
>IF THIS IS POSTED ANYWHERE ELSE, PLEASE GIVE ME CREDIT.
>thanks
>elric@selway.umt.edu
>    

Added On December 12th, 2013

SHARE

Comments

blog comments powered by Disqus

ADVERTISEMENT