Soprano Tabs

Ferme Les Yeux Et Imagine Toi

1 versions

TAB

            Soprano & Blacko - Ferme les yeux et imagine toi



       Lam          Sol                   Fa          Fa       Sol
|-------------------------------------------------x---0-----------------|
|-------0---1-----0h1p0---------------------------x---1-1------0--------|
|-----2---2---2---------0---0---2---0---------0-2-x---2---2------2-0----|
|---2-----------2---------0---0---0---------3-----x---3--------------3--| (x2)
|-0---------------------------------------3-------x---3-----------------|
|-----------------3-------------------------------x----------0-3--------|


    Lam            Sol             Fa              Fa           Sol
|-------x------x---------x------x---------x------x---------x---------x-------|
|-----1-x-1----x-------0-x-0----x-------1-x-1----x-------1-x-1-----0-x-0-----|
|-----2-x-2----x-------0-x-0----x-------2-x-2----x-------2-x-2-----0-x-0-----|
|---2---x------x-----0---x------x-----3---x------x-----3---x-----0---x-------|
|-0-----x------x-0-------x------x---------x------x---------x---------x-------|
|-------x------x---3-----x------x-3-1-----x------x-1-1-----x---3-----x---3---|


    Lam            Sol           Fa           Fa     Sol
|-0---0-x-0----x-3--3-x-3----x-0---0-x-0----x-0---0--3----x-----|
|-0h1-1-x-1----x-0--0-x-0----x-0h1-1-x-1----x-0H1-1--0----x-----|
|-2---2-x-2----x-0--0-x-0----x-2---2-x-2----x-2---2--0----x-----|
|-------x------x------x------x-------x------x--------0----x-----| (en boucle)
|-0-----x-0----x------x------x-------x------x--------2----x-----|
|-------x------x-3----x-3----x-1-----x------x-1------3----x-----|



Tablature tirйe d'une vidйo Youtube que voici : http://www.youtube.com/watch?v=pxfF9i_t2jU

(Si vous avez besoin d'un tutoriel vidйo demandez moi selon le nombre de demandes je 
pourrai йventuellement la faire).    

Added On December 16th, 2013

SHARE

Comments

blog comments powered by Disqus

ADVERTISEMENT