Soulfly Tabs

Tree of pain

4 versions

TAB

            Tree Of Pain Tab by Soulfly


SoulFly - Tree Of Pain

|------------------------------------------------------------------------------|
|------------------------------------------------------------------------------|
|--------------------------------------2--------2------------------------------|
|-----2----2----2----2----2----2------2-2------2-2-----------------------------|
|--4-2--4-2--4-2--4-2--4-2--4-2--2-4-2----2-4-2--------------------------------|
|------------------------------------------------------------------------------|
This is the soft clean channel guitar intro. It's played 10 times including when
the drum beat starts and when the girl starts singing.

This is when the song completely changes and gets crazy when Max comes in.
|--1111-2222-3333-6666---------------------------------------------------------|
|--1111-2222-3333-6666---------------------------------------------------------|
|--1111-2222-3333-6666---------------------------------------------------------|
|------------------------------------------------------------------------------|
|------------------------------------------------------------------------------|
|------------------------------------------------------------------------------|

Double pick the E string open during the part with the beeping sound.

|--1-1-2-1-2-1-1-2-1-1-2-1-----------------------------------------------------|
|--1-1-2-1-2-1-1-2-1-1-2-1-----------------------------------------------------|
|--1-1-2-1-2-1-1-2-1-1-2-1-----------------------------------------------------|
|------------------------------------------------------------------------------|
|------------------------------------------------------------------------------|
|------------------------------------------------------------------------------|
Bleeding!...Screaming! (After the 4th time this is played slide to the 12th fret)

|--1-1-2-1-2-1-1-2-1-1-2-1-X-X-X-----------------------------------------------|
|--1-1-2-1-2-1-1-2-1-1-2-1-X-X-X-----------------------------------------------|
|--1-1-2-1-2-1-1-2-1-1-2-1-X-X-X-----------------------------------------------|
|------------------------------------------------------------------------------|
|------------------------------------------------------------------------------|
|------------------------------------------------------------------------------|
This is played after Max screams "Bleeding!...Screaming!" and he starts a new verse.

|--2-1-2-1-2-1-2-1-2-3---------------------------------------------------------|
|--2-1-2-1-2-1-2-1-2-3---------------------------------------------------------|
|--2-1-2-1-2-1-2-1-2-3---------------------------------------------------------|
|------------------------------------------------------------------------------|
|------------------------------------------------------------------------------|
|------------------------------------------------------------------------------|
Bridge Riff (1 guitar)

For D-low!

Bridge riff played with 2 guitars

|--2-1-2-1-2-1-2-1/12----------------------------------------------------------|
|--2-1-2-1-2-1-2-1/12----------------------------------------------------------|
|--2-1-2-1-2-1-2-1/12----------------------------------------------------------|
|------------------------------------------------------------------------------|
|------------------------------------------------------------------------------|
|------------------------------------------------------------------------------|
This is played toward the end of the bridge

Repeat the clean soft channel guitar intro as the ending the same way as the beginning.


That's about it. Did my best with it. Any questions e-mail me at Phil0187@yahoo.com    

Added On December 12th, 2013

SHARE

Comments

blog comments powered by Disqus

VERSIONS

ADVERTISEMENT