Sound Of Music Tabs

Edelweiss

3 versions

TAB

            Edelweiss Tab by Sound Of Music


Edelweiss-this is a compilation of a few tabs I found on the internet

  G     D     G    C     G      Em         Am7  D7
  Edelweiss, edelweiss |Every morning you greet me |
e-------|-5-|-3----|---|-----|-----------|--0--|---|
B--0--3-|---|----3-|-1-|-0-0-|-0---1---3-|-----|-3-|
G-------|---|------|---|-----|-----------|-----|---|
D-------|---|------|---|-----|-----------|-----|---|
A-------|---|------|---|-----|-----------|-----|---|
E-------|---|------|---|-----|-----------|-----|---|

  G         D        G         C     G        D7       G
  Small and white, clean and bright| You look happy to meet me|
e----------|--5--|--3-------|------|--------|----0--2-|-3-|-3-|
B---0---3--|-----|--------3-|--1---|--0---3-|--3------|---|---|
G----------|-----|----------|------|--------|---------|---|---|
D----------|-----|----------|------|--------|---------|---|---|
A----------|-----|----------|------|--------|---------|---|---|
E----------|-----|----------|------|--------|---------|---|---|
 
  D                       G                C         A7    D  D7
  Blossom of snow may you bloom and grow| Bloom and grow, forever   |
e--5--------|--2---0-----|----------|-3-|---0----3-|--5---3-|-2-|---|
B-----3---3-|----------3-|--0----3--|---|----------|--------|---|-3-|
G-----------|------------|----------|---|----------|--------|---|---|
D-----------|------------|----------|---|----------|--------|---|---|
A-----------|------------|----------|---|----------|--------|---|---|
E-----------|------------|----------|---|----------|--------|---|---|

  G    D      G    C    G        D7       G
  Edelweiss, edelweiss | Bless my homeland forever|
e------|-5-|--3----|---|---------|-----0---2|-3-|---|
B--0-3-|---|-----3-|-1-|--0---3--|--3-------|---|---|
G------|---|-------|---|---------|----------|---|---|
D------|---|-------|---|---------|----------|---|---|
A------|---|-------|---|---------|----------|---|---|
E------|---|-------|---|---------|----------|---|---|    

Added On December 12th, 2013

SHARE

Comments

blog comments powered by Disqus

VERSIONS

ADVERTISEMENT