Sound Tribe Sector 9 Tabs

Equinox

1 versions

TAB

            This is my first tab so its not perfect, but this is the main theme to Equinox as I hear it.

e---------------------------------------------------------------------------------------|
B---------------------------5--------------------------7--------------------------------|
G------4-4------4-4------4--------4-4------4--------4---------4-4------4------4---------|
D----5--------5--------5--------5--------5--------5---------5--------5------5-----------|
A--7--------7--------7--------7--------7--------7---------7--------7------7-------------|
E---------------------------------------------------------------------------------------|

e---------------------------------------------------------------------------------------|
B---------------------------------------------------------------------------------------|
G------4-4------4-7-6---4---------------------------------------------------------------|
D----5--------5-------7---5-------------------------------------------------------------|
A--7--------7---------------7-----------------------------------------------------------|
E---------------------------------------------------------------------------------------|    

Added On December 16th, 2013

SHARE

Comments

blog comments powered by Disqus

ADVERTISEMENT