Soundgarden Tabs

Nothing To Say

2 versions

TAB

            Nothing To Say Tab by Soundgarden


NOTHING TO SAY-SOUNDGARDEN

INTRO
e||------------------------------------------||
B||------------------------------------------||
G||------------------------------------------||
D||------------------------------------------||
A||---------------------------------9-8—-12--||
D||--0--0-0-3----0-0---0--3--2-2----9-8—-12--||

e||---------------------------------||
B||---------------------------------||
G||---------------------------------||
D||---------------------------------||
A||---------------------------------||
D||--0--0-0-2~-----0--0-0-5-4~------||

VERSE
e||--------------------------------------||
B||--11--11-11-9---11-11-11/15-15-12-11--||
G||--------------------------------------||
D||--------------------------------------||
A||--------------------------------------||
D||--------------------------------------||

BRIDGE
e||---------------------------------||
B||---------------------------------||
G||---------------------------------||
D||---------------------------------||
A||---------------------------------||
D||--0--0-0-2~-----0--0-0-5-4~------||

CHORUS
e||-------------------------------------------------------||
B||-------------------------------------------------------||
G||-------------------------------------------------------||
D||-------------------------------------------------------||
A||-------------------------------------------------------||
D||-10-9--12-----11--9-8--12b-11---9-8--6-7--7-6--0--2-2--||

POST CHORUS
e||---------------------------------||
B||---------------------------------||
G||---------------------------------||
D||---------------------------------||
A||-----------2~--------------------||
D||--0--0-0-2------0--0-0-5-4~------||

VERSE
e||--------------------------------------||
B||--11--11-11-9---11-11-11/15-15-12-11--||
G||--------------------------------------||
D||--------------------------------------||
A||--------------------------------------||
D||--------------------------------------||

BRIDGE
e||---------------------------------||
B||---------------------------------||
G||---------------------------------||
D||---------------------------------||
A||---------2^bend------------------||
D||--0--0-0--------0--0-0-5-4~------||






CHORUS
e||-------------------------------------------------------||
B||-------------------------------------------------------||
G||-------------------------------------------------------||
D||-------------------------------------------------------||
A||-------------------------------------------------------||
D||-10-9--12-----11--9-8--12b-11---9-8--6-7--7-6--0--2-2--||

POST CHORUS 2
 Feedback through out
e||---------------------------------||
B||---------------------------------||
G||---------------------------------||
D||---------------------------------||
A||---------------------------------||
D||--0--0-0-3----0-0---0--3--2-2----||

BRIDGE
e||-------------------------------||
B||-------------------------------||
G||-------------------------------||
D||----------2tr3-----------------||
A||-------------------------------||
D||--0--0-0--------0--0-0-5-4~----||

OUTRO
Gradually slower
e||-------||
B||-------||
G||-------||
D||--5-4--||
A||--5-4--||
D||--5-4--||

feedback


semen faces! you're all semen faces!    

Added On December 12th, 2013

SHARE

Comments

blog comments powered by Disqus

VERSIONS

ADVERTISEMENT