Soundgarden Tabs

Rusty Cage

4 versions

TAB

            Rusty Cage Tab by Soundgarden


RUSTY CAGE
Soundgarden
 
Rhythm figure 1:
|-----------------|-----------------|-----------------|-----------------|
|-----------------|-----------------|-----------------|-----------------|
|------14h16--14--|--(14)-----------|-14h16-----14h16-|--(16)-----------|
|-----------------|-----------------|-----------------|-----------------|
|-14h16-----------|-----------12\14-|------12\14------|-----------------|
|-----------------|-----------------|-----------------|-----------------|
 
Rhythm figure 2:
|-----------------|-----------------|-----------------|-----------------|
|-----------------|-----------------|-----------------|-----------------|
|-----------------|-----------------|-----------------|-----------------|
|-----------------|-----------------|-----------------|-----------------|
|-----------------|-----------------|-----------------|-----------------|
|--15--15--12\7---|-10--------------|-(10)----------6-|---6-5-5-3-3-0---|
 
 
|-----------------|-----------------|-----------------|-----------------|
|-----------------|-----------------|-----------------|-----------------|
|-----------------|-----------------|-----------------|-----------------|
|-----------------|-----------------|-----------------|-----------------|
|-----------------|-----------------|-----------------|-----------------|
|-3----3----(3)\--|-----------------|-0-0-0-0-3-5--6--|---7-3-0-0-0-0-0-|    

Added On December 12th, 2013

SHARE

Comments

blog comments powered by Disqus

VERSIONS

ADVERTISEMENT