Spazz Tabs

Cool Guy

1 versions

TAB

            SPAZZ - COOL GUY

e|-------------------|
B|-------------------|
G|-------------------|
D|-5555-4444-5-4-3-2-| x4
A|-5555-4444-5-4-3-2-|
D|-5555-4444-5-4-3-2-|

e|--------------------|
B|--------------------|
G|--------------------|
D|-2------7-5-7-5-5-5-|
A|-2------7-5-7-3-3-3-|
D|-2------7-5-7-------|

e|-----------------------------------------------------------|
B|-----------------------------------------------------------|
G|-----------------------------------------------------------|
D|-2-2-2-2-2-2-7-5-7-6-6-6-2-2-2-2-2-2-7-5-7-5-5-5--5--5--8--|
A|-2-2-2-2-2-2-7-5-7-4-4-4-2-2-2-2-2-2-7-5-7-3-3-3--3--3--6--|
D|-2-2-2-2-2-2-7-5-7-------2-2-2-2-2-2-7-5-7-----------------|

e|-------------------|
B|-------------------|
G|-------------------|
D|-5555-4444-5-4-3-2-| x2
A|-5555-4444-5-4-3-2-|
D|-5555-4444-5-4-3-2-|

e|---------------|
B|---------------|
G|---------------|
D|-5-5-5-5-5-5-8-| x2
A|-3-3-3-3-3-3-6-|
D|---------------|    

Added On December 16th, 2013

SHARE

Comments

blog comments powered by Disqus

ADVERTISEMENT